PrimaNota.ru - самый крупный в мире бесплатный архив песенных текстов, аккордов, табулатур и нот


Crobot - Legend Of The Spaceborne Killer - таба, видео

Регистрация Запомнить меня
Войти через:  Facebook Google Twitter Vk Yandex Mail.ru

Crobot - Legend Of The Spaceborne Killer - таба, видео

Печатать
Просмотров: 111
Уроки эстрадного вокала в Санкт-Петербурге
Авторы: Paul Figueroa, Jake Figueroa, Brandon Yeagley, Chris Bishop

-------------------------------------------------------------------------------
                             Legend of the Spacborne Killer - Crobot
-------------------------------------------------------------------------------
Tabbed by: Tristan34
E-mail: tristanrohner@outlook.com

Tuning: Db Ab Db Gb Bb eB

This is my first tab, so don't hate on me, I'm sure there are plenty of mistakes. 
Enjoy the only Crobot tab on the web! 
Listen to the track to hear palm mutes and strum pattern etc. Thanks!

(Chris uses a custom delay pedal for the opening)                          

INTRO:
eb|------------|
Bb|---------0--|
Gb|---------0--|
Db|2~-------0--|
Ab|2~----------|
Db|2~---\14----|

eb|-----------------------------------------------------------------------------------|
Bb|-----------------------------------------------------------------------------------|
Gb|-----------------------------7-7h9-9-7h9-9--------------------------7---7h9-9-7h9-9|
Db|-------------5---7h9-9-7h9-9------------------------5---7h9-9-7h9-9----------------|
Ab|-5h7-7-5h7-7----------------------------5h7-7-5h7-7--------------------------------|
Db|-----------------------------------------------------------------------------------|

(For the verses, you may add slides and "chuck chuck" palm mutes for better sound)

VERSE: 
 The legend of the spaceborne killer
eb|------------------------------------------------------------------------------|
Bb|------------------------------------------------------------------------------|
Gb|------------------------------------------------------------------------------|
Db|---2~--------------------------------------------2---------------2------------|
Ab|---2~-------------------------------5h7-7-5h7-7--2--5h7-7-5h7-7--2--5h7-7-----|
Db|---2~--------------------------------------------2---------------2--------\9--|

  Made the front page today
eb|------------------------------------------------------------------------------|
Bb|------------------------------------------------------------------------------|
Gb|------------------------------------------------------------------------------|
Db|---2~--------------------------------------------2---------------2------------|
Ab|---2~-------------------------------5h7-7-5h7-7--2--5h7-7-5h7-7--2--5h7-7-----|
Db|---2~--------------------------------------------2---------------2--------\9--|

  Nobody knows where he came from
eb|------------------------------------------------------------------------------|
Bb|------------------------------------------------------------------------------|
Gb|------------------------------------------------------------------------------|
Db|---2~--------------------------------------------2---------------2------------|
Ab|---2~-------------------------------5h7-7-5h7-7--2--5h7-7-5h7-7--2--5h7-7-----|
Db|---2~--------------------------------------------2---------------2--------\9--|

  Why he's here, or what he'll do to you
eb|------------------------------------------5*---------------------------------|
Bb|------------------------------------------5*---------------------------------|
Gb|------------------------------------------5*---------------------------------|
Db|---2~------------------------------------------------------------------------|
Ab|---2~------------------------------------------------------------------------|
Db|---2~------------------------------------------------------------------------|


CHORUS: 
(listen for palm muting and strum pattern)

  I just saw the flashing lights
eb|-----------------------------------------------|
Bb|-----------------------------------------------|
Gb|-----------------------------------------------|
Db|------5-5-5-5--7-7-7-7---2--xxx--2--xxx--2-0---|
Ab|------5-5-5-5--7-7-7-7---2--xxx--2--xxx--2-0---|
Db|-\14--5-5-5-5--7-7-7-7---2--xxx--2--xxx--2-0---|
        
LEAD FILL after first line of chorus:
eb|-------------------------------12-----------------------------------------------------|
Bb|-----------------------------12---15b17--15b17r15p12----------------------------------|
Gb|-----------------------14b16-------------------------14b16r14p12--14-14b-p12----14-12v|
Db|-----------------------------------------------------------------------------14-------|
Ab|--------------------------------------------------------------------------------------|
Db|--------------------------------------------------------------------------------------|

They blinded me they shined so bright
eb|-------------------------------------------------|
Bb|-------------------------------------------------|
Gb|-------------------------------------------------|
Db|---5-5-5-5--7-7-7-7--------------------xx--2-0---|
Ab|---5-5-5-5--7-7-7-7-----------/7-------xx--2-0---|
Db|---5-5-5-5--7-7-7-7---2-4-2-0----2-2-2-xx--2-0---|

Is it half bird, half bot, or half alien
eb|----------------------------------------|
Bb|----------------------------------------|
Gb|----------------------------------------|
Db|--5-5-5-5--7-7-7-7---2-2-2-0--2-2-2-2---|
Ab|--5-5-5-5--7-7-7-7---2-2-2-0--2-2-2-2---|
Db|--5-5-5-5--7-7-7-7---2-2-2-0--2-2-2-2---|

I don't know, but he's got something in his hands
eb|-----------------------------------------------|
Bb|-----------------------------------------------|
Gb|---7-------------------------------------------|
Db|---7-----7-------------------------------------|
Ab|---5-----7-------------------------------------|
Db|---------7-------------------------------------|

Intro Riff again:
eb|-----------------------------------------------------------------------------------|
Bb|-----------------------------------------------------------------------------------|
Gb|-----------------------------7-7h9-9-7h9-9--------------------------7---7h9-9-7h9-9|
Db|-------------5---7h9-9-7h9-9------------------------5---7h9-9-7h9-9----------------|
Ab|-5h7-7-5h7-7----------------------------5h7-7-5h7-7--------------------------------|
Db|-----------------------------------------------------------------------------------|

VERSE:
The legend of the spaceborne killer
eb|------------------------------------------------------------------------------|
Bb|------------------------------------------------------------------------------|
Gb|------------------------------------------------------------------------------|
Db|---2~--------------------------------------------2---------------2------------|
Ab|---2~-------------------------------5h7-7-5h7-7--2--5h7-7-5h7-7--2--5h7-7-----|
Db|---2~--------------------------------------------2---------------2--------\9--|

I met face to face today
eb|------------------------------------------------------------------------------|
Bb|------------------------------------------------------------------------------|
Gb|------------------------------------------------------------------------------|
Db|---2~--------------------------------------------2---------------2------------|
Ab|---2~-------------------------------5h7-7-5h7-7--2--5h7-7-5h7-7--2--5h7-7-----|
Db|---2~--------------------------------------------2---------------2--------\9--|

I couldn't tell just what he wanted
eb|------------------------------------------------------------------------------|
Bb|------------------------------------------------------------------------------|
Gb|------------------------------------------------------------------------------|
Db|---2~--------------------------------------------2---------------2------------|
Ab|---2~-------------------------------5h7-7-5h7-7--2--5h7-7-5h7-7--2--5h7-7-----|
Db|---2~--------------------------------------------2---------------2--------\9--|

If I had to give I wouldn't gave it away
eb|------------------------------------------5*---------------------------------|
Bb|------------------------------------------5*---------------------------------|
Gb|------------------------------------------5*---------------------------------|
Db|---2~------------------------------------------------------------------------|
Ab|---2~------------------------------------------------------------------------|
Db|---2~------------------------------------------------------------------------|

Chorus:
I just saw his glowin eyes
eb|-----------------------------------------------|
Bb|-----------------------------------------------|
Gb|-----------------------------------------------|
Db|------5-5-5-5--7-7-7-7---2--xxx--2--xxx--2-0---|
Ab|------5-5-5-5--7-7-7-7---2--xxx--2--xxx--2-0---|
Db|-\14--5-5-5-5--7-7-7-7---2--xxx--2--xxx--2-0---|

Riff after first line of Chorus:
eb|---------------------------------------------------------12------------------|
Bb|-------------------------------12---------------------12---15s17v------------|
Gb|-------------------------12h14----14-12v--------14b16------------------------|
Db|-----------------------------------------12h14-------------------------------|
Ab|-----------------------------------------------------------------------------|
Db|-----------------------------------------------------------------------------|

They blinded me they shined so bright
eb|-------------------------------------------------|
Bb|-------------------------------------------------|
Gb|-------------------------------------------------|
Db|---5-5-5-5--7-7-7-7--------------------xx--2-0---|
Ab|---5-5-5-5--7-7-7-7-----------/7-------xx--2-0---|
Db|---5-5-5-5--7-7-7-7---2-4-2-0----2-2-2-xx--2-0---|

Is it half bird, half bot, or half alien
eb|----------------------------------------|
Bb|----------------------------------------|
Gb|----------------------------------------|
Db|--5-5-5-5--7-7-7-7---2-2-2-0--2-2-2-2---|
Ab|--5-5-5-5--7-7-7-7---2-2-2-0--2-2-2-2---|
Db|--5-5-5-5--7-7-7-7---2-2-2-0--2-2-2-2---|

I don't know, but he's got something in his hands
eb|-----------------------------------------------|
Bb|-----------------------------------------------|
Gb|---7-------------------------------------------|
Db|---7-----7-------------------------------------|
Ab|---5-----7-------------------------------------|
Db|---------7-------------------------------------|

SOLO:
eb|--xxxx-------------------------------------------------------------------------|
Bb|--xxxx---15b17r15--------------------------15b17p15v--12-15b17-15-12-----------|
Gb|--xxxx------------14p12-14b15r14p12----------------------------------14b16-----|
Db|--xxxx------------------------------14p12--------------------------------------|
Ab|--xxxx-------------------------------------------------------------------------|
Db|--xxxx-------------------------------------------------------------------------|

eb|-----------------------------------------------------------------------------------|
Bb|-----15b17r15------------------------------/12h15p12-11h14p11-10h13p10-9h12p9------|
Gb|--------------14p12-14b15r14p12----------------------------------------------------|
Db|--------------------------------14p12-14v------------------------------------------|
Ab|-----------------------------------------------------------------------------------|
Db|-----------------------------------------------------------------------------------|

BRIDGE:
In his hands, woah in his hands
eb|----------------------------------------------------------------------------|
Bb|----------------------------------------------------------------------------|
Gb|----------------------------------------------------------------------------|
Db|---2-2-2-0--5---7h8p7--5s2p0---2-2-2-0--5--7-7p5h7--------------------------|
Ab|---2-2-2-0--5---7h8p7--5s2p0---2-2-2-0--5--7-7p5h7--------------------------|
Db|---2-2-2-0--5---7h8p7--5s2p0---2-2-2-0--5--7-7p5h7--------------------------|

Woah in his hands, oh in his hands
eb|----------------------------------------------------------------------------|
Bb|----------------------------------------------------------------------------|
Gb|----------------------------------------------------------------------------|
Db|---2-2-2-0--5---7h8p7--5s2p0---2-2-2-0--5--7-7p5h7--------------------------|
Ab|---2-2-2-0--5---7h8p7--5s2p0---2-2-2-0--5--7-7p5h7--------------------------|
Db|---2-2-2-0--5---7h8p7--5s2p0---2-2-2-0--5--7-7p5h7--------------------------|

No more buildings to stand tall
eb|------------------------------|
Bb|------------------------------|
Gb|---7-------------4------------|
Db|---7------7------4------------|
Ab|---5------7------2------------|
Db|----------7-------------------|

No, he must have destroyed them all
eb|------------------------------|
Bb|------------------------------|
Gb|---7-------------4------------|
Db|---7------7------4------------|
Ab|---5------7------2------------|
Db|----------7-------------------|

Is it half bird, half bot, or alien
eb|------------------------------|
Bb|------------------------------|
Gb|---7-------------4------------|
Db|---7------7------4------------|
Ab|---5------7------2------------|
Db|----------7-------------------|

Well I don't know, but he's got something in his hands
eb|------------------------------|
Bb|------------------------------|
Gb|---7--------------------------|
Db|---7------7-------------------|
Ab|---5------7-------------------|
Db|----------7-------------------|

eb|--------------------------------------|
Bb|--------------------------------------|
Gb|----------------------------0h7h9-----|
Db|----------------------0h5h7-----------|
Ab|--7-7-5-7-7-5-7-0h5h7-----------------|
Db|--------------------------------------|

In his hands, woah in his hands
eb|----------------------------------------------------------------------------|
Bb|----------------------------------------------------------------------------|
Gb|----------------------------------------------------------------------------|
Db|---2-2-2-0--5---7h8p7--5s2p0---2-2-2-0--5--7-7p5h7--------------------------|
Ab|---2-2-2-0--5---7h8p7--5s2p0---2-2-2-0--5--7-7p5h7--------------------------|
Db|---2-2-2-0--5---7h8p7--5s2p0---2-2-2-0--5--7-7p5h7--------------------------|

Woah in his hands, oh in his hands
eb|----------------------------------------------------------------------------|
Bb|----------------------------------------------------------------------------|
Gb|----------------------------------------------------------------------------|
Db|---2-2-2-0--5---7h8p7--5s2p0---2-2-2-0--5--7-7h8p7-5s2p0--2~----------------|
Ab|---2-2-2-0--5---7h8p7--5s2p0---2-2-2-0--5--7-7h8p7-5s2p0--2~----------------|
Db|---2-2-2-0--5---7h8p7--5s2p0---2-2-2-0--5--7-7h8p7-5s2p0--------------------|


************************************

| /   slide up
| \   slide down
| h   hammer-on
| p   pull-off
| v   vibrato
| *   harmonic
| x   Mute note
| b   Bend
| r  Bend release
| ~ Let note ring


************************************
Добавлено: 01.09.2015
Другие материалы по этой песне:

Страница создана 01.09.2015
http://primanota.ru/crobot/legend-of-spaceborne-killer-chords.htm
Привет, Гость.
Предлагаем пройти революционный курс по гитаре.
Подарок от PrimaNota.Ru, забирай!