PrimaNota.ru - самый крупный в мире бесплатный архив песенных текстов, аккордов, табулатур и нот


Crobot - La Mano De Lucifer - таба, видео

Регистрация Запомнить меня
Войти через:  Facebook Google Twitter Vk Yandex Mail.ru

Crobot - La Mano De Lucifer - таба, видео

Печатать
Просмотров: 77
Artist: Crobot
Song: La Mano de Lucifer
Album: Something Supernatural
Tabbed by: gustavoaraujo999@hotmail.com
Tuning: Half-step down


[Intro/Verse]
D#|--------7---------7---------------------------5-----------5-----|
A#|--------7---------7---------------------------5-------------5---|
F#|--------7---------7-----7h9-7-------------6---6---6h7p6-------6-|
C#|---------------------9--7h9-7------9--------5-7---------7-------|
G#|--------------7h9--------------7/9----9\7-----------------------|
D#|-5/7----------------------------------7\5-----------------------|

D#|---------7---x---------------------5----------------------------|
A#|---------7----x---7-----------------5---------------------------|
F#|-----7---7-----x--9b11-br10-b11------6---7\6--------7---7/9-----|
C#|-------9-9------x---------------------7-------7-------7---------|
G#|---------9------------------------------------------------------|
D#|-5/7------------------------------------------------------------|

D#|--------7-------------------------------------5-------------5---|
A#|--------7-------------------------------------5---------------5-|
F#|--------7---------7-----7h9-7-----------------6---6h7p6---6-----|
C#|---------------------9--7h9-7------9----------7---------7-------|
G#|--------------7h9--------------7/9----9\7-----------------------|
D#|-5/7----------------------------------7\5-----------------------|

D#|---------7---------7-7--------------5---------------------------|
A#|---------7---------7-7------------------------------------------|
F#|-----7---7---------7-7----------5/7------7\6--------7---7/9-----|
C#|-------9-9------------------------------------7-------7---------|
G#|---------9------------------------------------------------------|
D#|-5/7------------------------------------------------------------|

D#|--------7---------7---------------------------5-------------5---|
A#|--------7---------7---------------------------5---------------5-|
F#|--------7---------7-----7h9-7-------------6---6---6h7p6---6-----|
C#|---------------------9--7h9-7------9--------5-7---------7-------|
G#|--------------7h9--------------7/9----9\7-----------------------|
D#|-5/7----------------------------------7\5-----------------------|

D#|-------3----------2---------3---2--|
A#|-------3----------2---------3---2--|
F#|-----4-4--------3-3-------4-4---3--|
C#|-------3----------2---------3---4--|
G#|-7\5---5----------4---------5---4--|
D#|-5\3---3----3\2---2---2/3---3---2--|


[Interlude]
D#|-----------------------------------------|
A#|-----------------------------------------|
F#|-----------------------------------------|
C#|-----------------------------------------|
G#|-----------------------------------------|
D#|-----------------------------------------|

D#|----------------------------|------------------------------------------|
A#|----------------------------|------------------------------------------|
F#|-16-16-16-16-16-16-16--19\--|-16-16-16-16-16-16-16--19\----------------|
C#|-x--x--x--x--x--x--x---x----|-x--x--x--x--x--x--x---x------------------|
G#|-14-14-14-14-14-14-14--17\--|-14-14-14-14-14-14-14--17\----------------|
D#|----------------------------|------------------------------------------|


[Verse]
D#|-----7--------7---------------------------|
A#|-----7--------7---------------------------|
F#|-----7--------7---------------------------|
C#|------------------------------------------|
G#|-7----------------------------------------|
D#|-5----------------------------------------|

D#|-----------------------------------------------------------|
A#|-----------------------------------------------------------|
F#|-----------------------------------------------------------|
C#|-----------------------------------------------------------|
G#|----5--5-----------5--5-----------5--5-----------7-7-5-----|
D#|-7-------7-5-7--7-------7-5-7--7-------7-5-7--7---------5--|

D#|-----7--------7---------------------------|
A#|-----7--------7---------------------------|
F#|-----7--------7---------------------------|
C#|------------------------------------------|
G#|-7----------------------------------------|
D#|-5----------------------------------------|

D#|-----------------------------------------------------------|
A#|---------------------------------------------------0-------|
F#|-------------------------------4-4--7-7--9-9--11---0-------|
C#|-------------------------------x-x--x-x--x-x--x---/0-------|
G#|----5--5-----------5--5--------2-2--5-5--7-7--9---/--------|
D#|-7-------7-5-7--7-------7-5-----------------------/--------|


[Chorus]
D#|------------------------------------------------|
A#|------------------------------------------------|
F#|-----------------------------------7^-----------|
C#|-----------------7---9-7-9-7-9-9\-----9---------|
G#|-----------5-7/9------------------------5h7-5---|
D#|-7-5-7-7\-------------------------------------7-|

D#|------------------------------------------------|
A#|------------------------------------------------|
F#|-----------------------------------7^-----------|
C#|-----------------7---9-7-9-7-9-9\-----9---------|
G#|----------\5-7-9------------------------5h7-5---|
D#|-7-5-7-7\-------------------------------------7-|

D#|-----------------------|
A#|-----------------------|
F#|-----------------------|
C#|-----------------------|
G#|-5^--------0-----------|
D#|-----7-5-7---2-5--6----|


[Interlude 2]
D#|----------------------------|------------------------------------------|
A#|----------------------------|------------------------------------------|
F#|-16-16-16-16-16-16-16--19\--|-16-16-16-16-16-16-16--19\----------------|
C#|-x--x--x--x--x--x--x---x----|-x--x--x--x--x--x--x---x------------------|
G#|-14-14-14-14-14-14-14--17\--|-14-14-14-14-14-14-14--17\----------------|
D#|----------------------------|------------------------------------------|


[Verse]
D#|-----7--------7---------------------------|
A#|-----7--------7---------------------------|
F#|-----7--------7---------------------------|
C#|------------------------------------------|
G#|-7----------------------------------------|
D#|-5----------------------------------------|

D#|-----------------------------------------------------------|
A#|-----------------------------------------------------------|
F#|-----------------------------------------------------------|
C#|-----------------------------------------------------------|
G#|----5--5-----------5--5-----------5--5-----------7-7-5-----|
D#|-7-------7-5-7--7-------7-5-7--7-------7-5-7--7---------5--|

D#|-----7--------7---------------------------|
A#|-----7--------7---------------------------|
F#|-----7--------7---------------------------|
C#|------------------------------------------|
G#|-7----------------------------------------|
D#|-5----------------------------------------|

D#|-----------------------------------------------------------|
A#|---------------------------------------------------0-------|
F#|-------------------------------4-4--7-7--9-9--11---0-------|
C#|-------------------------------x-x--x-x--x-x--x---/0-------|
G#|----5--5-----------5--5--------2-2--5-5--7-7--9---/--------|
D#|-7-------7-5-7--7-------7-5-----------------------/--------|


[Chorus 2] (the xxx000x here are dives with a pedal)
D#|------------------------------------------------|
A#|------------------------------------------------|
F#|-----------------------------------7^-----------|
C#|-----------------7---9-7-9-7-9-9\-----9---------|
G#|----------\5-7-9------------------------5h7-5---|
D#|-7-5-7-7\-------------------------------------7-|

D#|------------------------------------------------|
A#|------------------------------------------------|
F#|-----------------------------------7^-----------|
C#|-----------------7---9-7-9-7-9-9\-----9---------|
G#|----------\5-7-9------------------------5h7-5---|
D#|-7-5-7-7\-------------------------------------7-|

D#|---------------------------------------------------------|
A#|------------0------------0------------0------------10-12-|
F#|------------0-7^---------0------------0--7^----/11-------|
C#|-/9-7-9-9\--0----9-7-9\--0--9-7-9-9\--0----9-7-----------|
G#|---------------------------------------------------------|
D#|---------------------------------------------------------|

D#|---------------------------------------------------------|
A#|------------0------------0------------0------------------|
F#|------------0-7^---------0------------0--7^--------------|
C#|-/9-7-9-9\--0----9-7-9\--0--9-7-9-9\--0----9-------------|
G#|---------------------------------------------5h7-5-------|
D#|---------------------------------------------------7-----|


[Bridge]
D#|--------------------------------|------------------------------------|
A#|--------------------------------|------------------------------------|
F#|--------------------------------|------------------------------------|
C#|--------------------------------|------------------------------------|
G#|-12-12-12-12---14---9--9--9-----|-12-12-12-12---14---9--9--9---------|
D#|-10-10-10-10-/-12-\-7--7--7-5-7-|-10-10-10-10-/-12-\-7--7--7-577-577-|

D#|--------------------------------|------------------------------------------|
A#|--------------------------------|------------------------------------------|
F#|--------------------------------|-10-9---9-7-------------------------------|
C#|--------------------------------|-10-9---9-7-------------------------7-9-9-|
G#|-12-12-12-12---14---9--9--9-----|-8--7---7-5---------5---------7-9-9-------|
D#|-10-10-10-10-/-12-\-7--7--7-5-7-|--------------5-7-7---7--7-10-------------|

D#|--------------------------------|------------------------------------|
A#|--------------------------------|------------------------------------|
F#|--------------------------------|------------------------------------|
C#|--------------------------------|------------------------------------|
G#|-12-12-12-12---14---9--9--9-----|-12-12-12-12---14---9--9--9---------|
D#|-10-10-10-10-/-12-\-7--7--7-5-7-|-10-10-10-10-/-12-\-7--7--7-577-577-|

D#|--------------------------------|------------------------------------|
A#|--------------------------------|------------------------------------|
F#|--------------------------------|-10-9---9-7---7-6-------------------|
C#|--------------------------------|-10-9---9-7---7-6-------------------|
G#|-10-10-10-10---12---9--9--9-----|-8--7---7-5---5-4-------------------|
D#|-8--8--8--8--/-10-\-7--7--7-5-7-|-------------------2////14----------|

D#|-------------------|---------------------|
A#|-------------------|---------------------|
F#|-------------------|---------------------|
C#|-------------------|---------------------|
G#|-5^--------0-------|-5^--------0---------|
D#|-----7-5-7---2-7-5-|-----7-5-7---2-5--6--|


[Solo]
D#|------7---------------5-------------|
A#|-----7---------------5--------------|
F#|----7---------------6-----6--6h7p6--|
C#|---9---------------7----------------|
G#|--9---------------7-----------------|
D#|-7-------7-7\5---5------------------|

D#|---------------------|------------------------|
A#|-7---------7-7-------|-7----------------------|
F#|-9b11br9-7---9b11br9-|-9b11br9-7--------------|
C#|---------------------|-----------9---7--------|
G#|---------------------|------------------9\7-5-|
D#|---------------------|------------------------|

D#|--------------11--------------11---------------11---------------11-------------|
A#|-----10-12-------12-----10-------12-----10--------12----10---------12----10----|
F#|-/11-------11--------11----11--------11----11--------11----11---------11----11-|
C#|-------------------------------------------------------------------------------|
G#|-------------------------------------------------------------------------------|
D#|-------------------------------------------------------------------------------|

D#|-9h10p9------10----10/12-----12-----12--|
A#|--------10------10--------10-----10-----|
F#|----------------------------------------|
C#|----------------------------------------|
G#|----------------------------------------|
D#|----------------------------------------|


[Verse]
D#|--------7-------------------5------------5----------------------|
A#|--------7-------------------5--------------5--------------------|
F#|--------7-------------------6--6-6h7p6-------6------------------|
C#|--------9-------------------7----------7------------------------|
G#|--------9-------------------7-----------------------------------|
D#|-5/7---------------7-7-7\5--------------------------------------|

D#|--------7-----10/-----------5------------5----------------------|
A#|--------7-----10/-----------5--------------5--------------------|
F#|--------7-------------------6--6-6h7p6-------6------------------|
C#|--------9-------------------7----------7------------------------|
G#|--------9-------------------7-----------------------------------|
D#|-5/7------------------------------------------------------------|

D#|-------3----------2---------3---2--|
A#|-------3----------2---------3---2--|
F#|-----4-4--------3-3-------4-4---3--|
C#|-------3----------2---------3---4--|
G#|-7\5---5----------4---------5---4--|
D#|-5\3---3----3\2---2---2/3---3---2--|


[Interlude 1]
Crobot's classic "I have no idea what the hell happens here but it has to do with a pedal" increasing noise


[Chorus 2]
D#|------------------------------------------------|
A#|------------------------------------------------|
F#|-----------------------------------7^-----------|
C#|-----------------7---9-7-9-7-9-9\-----9---------|
G#|----------\5-7-9------------------------5h7-5---|
D#|-7-5-7-7\-------------------------------------7-|

D#|------------------------------------------------|
A#|------------------------------------------------|
F#|-----------------------------------7^-----------|
C#|-----------------7---9-7-9-7-9-9\-----9---------|
G#|----------\5-7-9------------------------5h7-5---|
D#|-7-5-7-7\-------------------------------------7-|

D#|---------------------------------------------------------|
A#|------------0------------0------------0------------10-12-|
F#|------------0-7^---------0------------0--7^----/11-------|
C#|-/9-7-9-9\--0----9-7-9\--0--9-7-9-9\--0----9-7-----------|
G#|---------------------------------------------------------|
D#|---------------------------------------------------------|

D#|---------------------------------------------------------|
A#|------------0------------0------------0------------------|
F#|------------0-7^---------0------------0--7^--------------|
C#|-/9-7-9-9\--0----9-7-9\--0--9-7-9-9\--0----9-------------|
G#|---------------------------------------------5h7-5-------|
D#|---------------------------------------------------7-----|


[Outro]
D#|-----------------------|
A#|-----------------------|
F#|-----------------------|
C#|---------------------9-|
G#|-5^--------0---------9-|
D#|-----7-5-7---2-5--6--7-|


==== Legend ====
~ = let ring
/ = slide
* = natural harmonic
+ = artificial harmonic
x = muted note
h = hammer-on
p = pull-off
^ = slight bend
b = bend
br = bend release
??? = ungodly sound using pedals
Добавлено: 01.03.2016
Другие материалы по этой песне:
  • Аккорды и текст

Страница создана 01.03.2016
http://primanota.ru/crobot/la-mano-de-lucifer-chords.htm
Привет, Гость.
Предлагаем пройти революционный курс по гитаре.
Подарок от PrimaNota.Ru, забирай!