PrimaNota.ru - самый крупный в мире бесплатный архив песенных текстов, аккордов, табулатур и нот


Crobot - Fly On The Wall - таба, видео

Регистрация Запомнить меня
Войти через:  Facebook Google Twitter Vk Yandex Mail.ru

Crobot - Fly On The Wall - таба, видео

Печатать
Просмотров: 37
Уроки эстрадного вокала в Санкт-Петербурге
=================================================================================

    THIS IS AN OFFICIAL TAB, CREATED AND VERIFIED BY CHRIS BISHOP OF CROBOT

=================================================================================
                             
                              Crobot - Fly On The Wall


Tabbed by: bishop the destroyer
Tuning: 1/2 step down (Eb Ab Db Gb Bb Eb)

Intro riff: 
eb|---------------------------------------------------------------------------|
Ab|---------------------------------------------------------------------------|
Db|---------------------------------------------------------------------------|
Gb|---------------------5-----------------------------------------------------|
Bb|-----5--6--7-------------7----------5---6----------5----6----7-------------|
Eb|-0--------------0-------------0--------------0-------------------0---------|

eb|---------------------------------------------------------------------------------|
Ab|--------------12-----------------------------------------------------------------|
Db|--------------12----14p12--------------------------------------------------------|
Gb|-5--------------------------14---------------------------5-----------------------|
Bb|------7/------------------------------5---6---7----------------7-----------5---6-|
Eb|---------------------------------0------------------0----------------0-----------|

eb|---------------------------------------------------------------------------|
Ab|---------------------------------------------------------------------------|
Db|---------------------------------------------------------------------------|
Gb|----------------------5/1--------------------------------------------------|
Bb|-----5--6---7--------------------------------------------------------------|
Eb|0----------------0----------1/12-------------------------------------------|



Verse:
eb|---------------------------------------------------------------------------|
Ab|-----------------------------------------------5---------------------------|
Db|-----15--------14brb/7----15---------14brb/7-------7----------15-----------|
Gb|---------------------------------------------------------------------------|
Bb|-----14--------14brb/7----14---------14brb/7-------7/---------14-----------|
Eb|-12-------12--------------12----12----------------------12-----------------|

eb|---------------------------------------------------------------------------|
Ab|---------------------------------------------------------------------------|
Db|----------14brb----7/---------15----------14/1-----------------------------|
Gb|---------------------------------------------------------------------------|
Bb|----------14brb----7/---------14----------14/1-----------------------------|
Eb|---12--------------------12---------12-----------1/12----------------------|


Pre-Chorus:
eb|---------------------------------------------------------------------------|
Ab|---------------------------------------------------------------------------|
Db|---------------------------------------------------------------------------|
Gb|-------------------------------------------------------5-------------------|
Bb|-----------------------------------------------5-6-7-----7---5-6-----------|
Eb|-/5v-5v--5v-5v-5v-5v---5v-5v---5v-5v-5v-5v---0--------0-----0--------------|

eb|----------------------------------------------------------------------------------|
Ab|----------------------------------------------------2-----------------------------|
Db|----------------------------------------------------3---7---12--12--11--10--------|
Gb|----------------------------------------------------0---7---12--12--11--10--------|
Bb|-------------------------------------------------------/9---10--10--9---8---------|
Eb|-/5v-5v--5v-5v-5v-5v--5v-5v--5v-5v-5v-5v--5-3-2-1-----------10--10--9---8--/0-----|



Bridge:
eb|---------------------------------------------------------------------------|
Ab|---------------------------------------------------------------------------|
Db|-----------------------------------------------10-11-12--------------------|
Gb|------------------------------------------7-8-9-8-9--10--------------------|
Bb|-----------5-6-7--------------------------5-6-7-8-9--10--------------------|
Eb|-7\-0-3-0--------3-0--repeatx2--7\-0-3-0--5-6-7----------------------------|


************************************

| /   slide up
| \   slide down
| h   hammer-on
| p   pull-off
| v   vibrato
| +   harmonic
| x   Mute note
| b   Bend
| pb  Pre-bend
| br  Bend release
| pbr Pre-bend release
| brb Bend release bend

************************************
Добавлено: 01.09.2015
Другие материалы по этой песне:
  • Аккорды и текст

Страница создана 01.09.2015
http://primanota.ru/crobot/fly-on-wall-chords.htm
Привет, Гость.
Предлагаем пройти революционный курс по гитаре.
Подарок от PrimaNota.Ru, забирай!