PrimaNota.ru - самый крупный в мире бесплатный архив песенных текстов, аккордов, табулатур и нот


Crobot - Cloud Spiller - таба, видео

Регистрация Запомнить меня
Войти через:  Facebook Google Twitter Vk Yandex Mail.ru

Crobot - Cloud Spiller - таба, видео

Печатать
Просмотров: 68
Artist: Crobot
Song: Cloud Spiller
Album: Something Supernatural
Tabbed by: gustavoaraujo999@hotmail.com
Tuning: Drop C#


[Intro]
D#|-----------------------------|---------------------------------|
A#|-----------------------------|---------------------------------|
F#|-----------------------------|---------------------------------|
C#|-----3^---------3-5-3--------|-----3^---------3-5-3------10-12-|
G#|-3-5----5---3-5--------5-3-5-|-3-5----5---3-5--------/12-------|
D#|-----------------------------|---------------------------------|

D#|------------------------------------------|------------------------------------------|
A#|------------------------------------------|------------------------------------------|
F#|-------10^-------------10-12-10-----------|-------10^------------10-12-10------------|
C#|-10-12-----12---10-12------------12-10-12-|-10-12-----12---10-12------------12-10-12-|
G#|------------------------------------------|------------------------------------------|
D#|------------------------------------------|------------------------------------------|


[Verse]
D#|------|-14-----14------------15----------15-14-------------------------|
A#|------|-15--------15----15------15-------------15----------------------|
F#|------|-14-----------14------------14-------------14-------------------|
C#|-12---|----------------------------------------------------------------|
G#|-12---|----------------------------------------------------------------|
D#|-12---|-----------------------------------------------12\\-------------|

D#|-----------------------------|---------------------------------|
A#|-----------------------------|---------------------------------|
F#|-----------------------------|---------------------------------|
C#|-----3^---------3-5-3--------|-----3^---------3-5-3------------|
G#|-3-5----5---3-5--------5-3-5-|-3-5----5---3-5--------5-3-5-----|
D#|-----------------------------|---------------------------------|

D#|------------------------------|
A#|--------------------------0---|
F#|-5--5-6-7-8-9-10////------0---|
C#|-5--5-6-7-8-9-10////-----/0---|
G#|-3--3-4-5-6-7-8-////-\---/----|
D#|---------------------\---/----|

D#|-----------------------------|---------------------------------|
A#|-----------------------------|--------------------------0------|
F#|-----------------------------|--------------------------0------|
C#|-----3^---------3-5-3--------|-----3^---------3-5-3----/0------|
G#|-3-5----5---3-5--------5-3-5-|-3-5----5---3-5----------/-------|
D#|-----------------------------|-------------------------/-------|


[Pre-chorus] - rhythm is confusing but i think the notes are right
D#|-------------------------------------------------------------------------13---------|
A#|-------------------------------------------------------------------------12---------|
F#|-10--10-x-x-10-------10-x-x-10-10----10-11-12--12--12--12-12-12----------12---7-5-6-|
C#|-10--10-x-x-10-------10-x-x-10-10----10-11-12--12--12--12-12-12-------12------7-5-6-|
G#|----------------8/12--------------------------------------------10/14---------5-3-4-|
D#|------------------------------------------------------------------------------------|


[Chorus] - there is something is this space, i just don't know what it is
D#|-------------------------------------------|
A#|-------------------------------------------|
F#|-7-7-7-7-7-7-7-7--10-10-10-10--12-12-12-12-|
C#|-7-7-7-7-7-7-7-7--10-10-10-10--12-12-12-12-|
G#|-5-5-5-5-5-5-5-5--8--8--8--8---10-10-10-10-|
D#|-------------------------------------------|

D#|------------------------------------|
A#|------------------------------------|
F#|-77-77\---5-5---2222-----[?]------5-|
C#|-77-77\---5-5---2222--------------5-|
G#|-55-55\---3-3---0000--------------3-|
D#|------------------------------------|


[Interlude]
D#|-----------------------------|---------------------------------|
A#|-----------------------------|---------------------------------|
F#|-----------------------------|---------------------------------|
C#|-----3^---------3-5-3--------|-----3^---------3-5-3------10-12-|
G#|-3-5----5---3-5--------5-3-5-|-3-5----5---3-5--------/12-------|
D#|-----------------------------|---------------------------------|

D#|------------------------------------------|------------------------------------------|
A#|------------------------------------------|------------------------------------------|
F#|-------10^-------------10-12-10-----------|-------10^------------10-12-10------------|
C#|-10-12-----12---10-12------------12-10-12-|-10-12-----12---10-12------------12-10-12-|
G#|------------------------------------------|------------------------------------------|
D#|------------------------------------------|------------------------------------------|


[Verse]
D#|------|-14-----14------------15----------15-14-------------------------|
A#|------|-15--------15----15------15-------------15----------------------|
F#|------|-14-----------14------------14-------------14-------------------|
C#|-12---|----------------------------------------------------------------|
G#|-12---|----------------------------------------------------------------|
D#|-12---|-----------------------------------------------12\\-------------|

D#|-----------------------------|---------------------------------|
A#|-----------------------------|---------------------------------|
F#|-----------------------------|---------------------------------|
C#|-----3^---------3-5-3--------|-----3^---------3-5-3------------|
G#|-3-5----5---3-5--------5-3-5-|-3-5----5---3-5--------5-3-5-----|
D#|-----------------------------|---------------------------------|

D#|------------------------------|
A#|--------------------------0---|
F#|-5--5-6-7-8-9-10////------0---|
C#|-5--5-6-7-8-9-10////-----/0---|
G#|-3--3-4-5-6-7-8-////-\---/----|
D#|---------------------\---/----|

D#|-----------------------------|---------------------------------|
A#|-----------------------------|--------------------------0------|
F#|-----------------------------|--------------------------0------|
C#|-----3^---------3-5-3--------|-----3^---------3-5-3----/0------|
G#|-3-5----5---3-5--------5-3-5-|-3-5----5---3-5----------/-------|
D#|-----------------------------|-------------------------/-------|


[Pre-chorus]
D#|-------------------------------------------------------------------------13---------|
A#|-------------------------------------------------------------------------12---------|
F#|-10--10-x-x-10-------10-x-x-10-10----10-11-12--12--12--12-12-12----------12---7-5-6-|
C#|-10--10-x-x-10-------10-x-x-10-10----10-11-12--12--12--12-12-12-------12------7-5-6-|
G#|----------------8/12--------------------------------------------10/14---------5-3-4-|
D#|------------------------------------------------------------------------------------|


[Chorus]
D#|-------------------------------------------|
A#|-------------------------------------------|
F#|-7-7-7-7-7-7-7-7--10-10-10-10--12-12-12-12-|
C#|-7-7-7-7-7-7-7-7--10-10-10-10--12-12-12-12-|
G#|-5-5-5-5-5-5-5-5--8--8--8--8---10-10-10-10-|
D#|-------------------------------------------|

D#|------------------------------------|
A#|------------------------------------|
F#|-77-77\---5-5---2222-----[?]------5-|
C#|-77-77\---5-5---2222--------------5-|
G#|-55-55\---3-3---0000--------------3-|
D#|------------------------------------|


{Interlude 2]
D#|-----------------------------|---------------------------------|
A#|-----------------------------|---------------------------------|
F#|-----------------------------|---------------------------------|
C#|-----3^---------3-5-3--------|-----3^---------3-5-3------10-12-|
G#|-3-5----5---3-5--------5-3-5-|-3-5----5---3-5--------/12-------|
D#|-----------------------------|---------------------------------|

D#|------------------------------------------|-----------|
A#|------------------------------------------|-5---???---|
F#|-------10^-------------10-12-10-----------|-7b9-???---|
C#|-10-12-----12---10-12------------12-10-12-|-----------|
G#|------------------------------------------|-----------|
D#|------------------------------------------|-----------|


[Bridge]
D#|---------------------|
A#|---------------------|
F#|---------------------|
C#|---------------------|
G#|------------------35-|
C#|-0-0-0-0-0-0--035----|

D#|--------------------------------|
A#|--------------------------------|
F#|-12b14--------------------------|
C#|-------10--10-10----------10h12-|
G#|------------------0h10h12-------|
D#|--------------------------------|


[Pre-chorus 2]
D#|--------------------------|
A#|--------------------------|
F#|-10-10-10x10--12-12-14x14-|
C#|-10-10-10x10--12-12-14x14-|
G#|--------------------------|
C#|--------------------------|


[Chorus]
D#|-------------------------------------------|
A#|-------------------------------------------|
F#|-7-7-7-7-7-7-7-7--10-10-10-10--12-12-12-12-|
C#|-7-7-7-7-7-7-7-7--10-10-10-10--12-12-12-12-|
G#|-5-5-5-5-5-5-5-5--8--8--8--8---10-10-10-10-|
D#|-------------------------------------------|

D#|------------------------------------|
A#|-----------------------6---3---5----|
F#|-77-77\---5-5---2222-4---4---4----5-|
C#|-77-77\---5-5---2222--------------5-|
G#|-55-55\---3-3---0000--------------3-|
D#|------------------------------------|


[Outro]
D#|-----------------------------|---------------------------------|
A#|-----------------------------|---------------------------------|
F#|-----------------------------|---------------------------------|
C#|-----3^---------3-5-3--------|-----3^---------3-5-3------10-12-|
G#|-3-5----5---3-5--------5-3-5-|-3-5----5---3-5--------/12-------|
D#|-----------------------------|---------------------------------|

D#|------------------------------------------|------------------------------------------|
A#|------------------------------------------|------------------------------------------|
F#|-------10^-------------10-12-10-----------|-------10^------------10-12-10------------|
C#|-10-12-----12---10-12------------12-10-12-|-10-12-----12---10-12------------12-10-12-|
G#|------------------------------------------|------------------------------------------|
D#|------------------------------------------|------------------------------------------|


==== Legend ====
~ = let ring
/ = slide
* = natural harmonic
+ = artificial harmonic
x = muted note
h = hammer-on
p = pull-off
^ = slight bend
b = bend
br = bend release
??? = ungodly sound using pedals


Please rate and comment!
Добавлено: 01.03.2016
Другие материалы по этой песне:
  • Аккорды и текст

Страница создана 01.03.2016
http://primanota.ru/crobot/cloud-spiller-chords.htm
Привет, Гость.
Предлагаем пройти революционный курс по гитаре.
Подарок от PrimaNota.Ru, забирай!