PrimaNota.ru - самый крупный в мире бесплатный архив песенных текстов, аккордов, табулатур и нот


Cro-mags - World Peace - таба, видео

Регистрация Запомнить меня
Войти через:  Facebook Google Twitter Vk Yandex Mail.ru

Cro-mags - World Peace - таба, видео

Печатать
Просмотров: 75
Artist: Cro-mags
Piece: World Peace
Instrument: Guitar

Verse                                 
E|---------------------------------------------------------------------------|
B|---------------------------------------------------------------------(x2)--|
G|--------------10-9-9-9-9-9-9---------------12-11-11-11-11------------------|
D|--2-2-2--5-7--10-9-9-9-9-9-9---2-2-2--5-7--12-11-11-11-11------------------|
A|--2-2-2--5-7--8--7-7-7-7-7-7---2-2-2--5-7--10-9--9--9--9-------------------|
E|--0-0-0--3-5-------------------0-0-0--3-5----------------------------------|

   Chorus                               
E|------------------------------------|--------------------------------------|
B|------------------------------(x4)--|--------------------------------(x2)--|
G|--9-9-9-----------------------------|--9-9-9--12-11-12--4-4-4--7-5-7-------|
D|--9-9-9--7-8-7--5-5-5--4-4-4--------|--9-9-9--12-11-12--4-4-4--7-5-7-------|
A|--7-7-7--7-8-7--5-5-5--4-4-4--------|--7-7-7--10-9--10--2-2-2--5-4-5-------|
E|---------5-6-5--3-3-3--2-2-2--------|--------------------------------------|

E|------------------------------------|        |-----------------------------|
B|------------------------------(x4)--|        |-----------------------------|
G|--9-9-9-9--12-11-11-11-11-11--------| Repeat |-----------------------------|
D|--9-9-9-9--12-11-11-11-11-11--------| Verse/ |--7-7-7-7-7-7-7-7-7-7-7-7-7--|
A|--7-7-7-7--10-9--9--9--9--9---------| Chorus |--7-7-7-7-7-7-7-7-7-7-7-7-7--|
E|------------------------------------|        |--5-5-5-5-5-5-5-5-5-5-5-5-5--|

   Break/Outro
E|---------------------------------------|-----------------------------------|
B|---------------------------------(x )--|-----------------------------(x2)--|
G|---------5-5-5--4-4--7-7-7--5-4--------|--5-5-5--8-8-7-7--5-5-5--8-7-------|
D|--7-7-7--5-5-5--4-4--7-7-7--5-4--------|--5-5-5--8-8-7-7--3-3-3--8-7-------|
A|--7-7-7--3-3-3--2-2--5-5-5--3-2--------|--3-3-3--6-6-5-5---------6-5-------|
E|--5-5-5--------------------------------|-----------------------------------|

E|---------------------------------------|-----------------------------------||
B|---------------------------------(x )--|-----------------------------------||
G|---------5-5-5--4-4--7-7-7--5-4--------|-----------------------------------||
D|--7-7-7--5-5-5--4-4--7-7-7--5-4--------|--7-7-7-7-7-7-7-7-7-7-7-7-7-7-7-7--||
A|--7-7-7--3-3-3--2-2--5-5-5--3-2--------|--7-7-7-7-7-7-7-7-7-7-7-7-7-7-7-7--||
E|--5-5-5--------------------------------|--5-5-5-5-5-5-5-5-5-5-5-5-5-5-5-5--||
Добавлено: 14.11.2015
Другие материалы по этой песне:

Страница создана 16.05.2012
http://primanota.ru/cro-mags/world-peace-chords.htm
Привет, Гость.
Предлагаем пройти революционный курс по гитаре.
Подарок от PrimaNota.Ru, забирай!