PrimaNota.ru - самый крупный в мире бесплатный архив песенных текстов, аккордов, табулатур и нот


Cro-mags - We Gotta Know - таба, бас-таба, видео

Регистрация Запомнить меня
Войти через:  Facebook Google Twitter Vk Yandex Mail.ru

Cro-mags - We Gotta Know - таба, бас-таба, видео

Печатать
Просмотров: 197
I tabbed out everything except the Guitar solo.
Intro
E[--------------------------------|
B[--------------------------------|
G[--------------------------------|
D[-5-4-------5-4------5-4-2-------|
A{-5-4-------5-4------5-4-2-------|
E{-3-2-------3-2------3-2-0-------|
Verses
E[------------------------|
B[------------------------|
G[------------------------|
D[-44-22-44-22-4-22--2 22-|
A[-44-22-44-22-4-22--2-22-|
E[-22-00-22-00-2-00--0-00-|

Chorus
E[--------------------------------------------------|
B[--------------------------------------------------|
G[--------------------------4-44444-----------------|
D[-6-666-6666-6666-6666-----4-44444---5-55555-------|
A[-6-666-6666-6666-6666-----2-22222---5-55555-------|
E[-4-444-4444-4444-4444---------------3-33333-------|
Bridge
E[---------------------------------------|
B[---------------------------------------|
G[-9\----------------------99-----7-7----|
D[-9\-2222-2222-2222-22----99-----7-7----|
A[-7\-2222-2222-2222-22----77-----5-5----|
E[----0000-0000-0000-00------------------|

Gtr solo (Rhythem part)         Ending riff
E[-------------------------]-----------------------------|
B[-------------------------]-----------------------------|
G[-------------------------]---------------------5-4-----|
D[-44-22-44-22-4-22---2-22-]-5-22-6-22-5-22-6-22-5-4-----|
A[-44-22-44-22-4-22---2-22-]-5-22-6-22-5-22-6-22-3-2-5-2-|
E[-22-00-22-00-2-00---0-00-]-3-00-4-00-3-00-4-00-----3-0-|

Just follow this and get the timing and and order by listening to the song.
Добавлено: 07.06.2012
Другие материалы по этой песне:
  • Аккорды и текст

Страница создана 18.04.2012
http://primanota.ru/cro-mags/we-gotta-know-chords.htm
Привет, Гость.
Предлагаем пройти революционный курс по гитаре.
Подарок от PrimaNota.Ru, забирай!