PrimaNota.ru - самый крупный в мире бесплатный архив песенных текстов, аккордов, табулатур и нот


Crno Perje - Kiša - таба, видео

Регистрация Запомнить меня
Войти через:  Facebook Google Twitter Vk Yandex Mail.ru

Crno Perje - Kiša - таба, видео

Печатать
Просмотров: 128
Уроки эстрадного вокала в Санкт-Петербурге
-------------------------------------------------------------------------------
                             SONG NAME - Band Name
-------------------------------------------------------------------------------
Tabbed by: kiki_7777
E-mail:

Tuning:Standard

e|-------8-----10b--10b--10--8------8----------------------------------------|
B|--6/8-----8-------------------10-----6b--8--4/5-----6p5-----4/5------------|
G|-------------------------------------------------5-------5-------5--5------|
D|---------------------------------------------------------------------------|
A|---------------------------------------------------------------------------|
E|---------------------------------------------------------------------------|

e|---------------5-----------------------------------------------------------|
B|------------------8--5-----5------------------------------------------8----|
G|--------5--7b-----------8-----8--7--5-----7--5--------5---7--5--7/9--------|
D|--5--7---------------------------------7--------7--5-----------------------|
A|---------------------------------------------------------------------------|
E|---------------------------------------------------------------------------|

e|-----------8--10--10--10br--8--10--8------8--------------------------------|
B|--10p8h10-----------------------------10-----8h10p8--5h8--3br--1-----------|
G|---------------------------------------------------------------------------|
D|---------------------------------------------------------------------------|
A|---------------------------------------------------------------------------|
E|---------------------------------------------------------------------------|

e|------------------------|
B|--------1h3p1-----1-----|
G|--0--2---------2--------|
D|------------------------|
A|------------------------|
E|------------------------|



************************************

| /   slide up
| \   slide down
| h   hammer-on
| p   pull-off
| ~   vibrato
| +   harmonic
| x   Mute note
| b   Bend
| pb  Pre-bend
| br  Bend release
| pbr Pre-bend release
| brb Bend release bend

************************************
Добавлено: 20.07.2015
Другие материалы по этой песне:
  • Аккорды и текст

Страница создана 20.07.2015
http://primanota.ru/crno-perje/kisa-chords.htm
Привет, Гость.
Предлагаем пройти революционный курс по гитаре.
Подарок от PrimaNota.Ru, забирай!