PrimaNota.ru - самый крупный в мире бесплатный архив песенных текстов, аккордов, табулатур и нот


Criteria - Good Luck - текст песни, таба, видео

Регистрация Запомнить меня
Войти через:  Facebook Google Twitter Vk Yandex Mail.ru

Criteria - Good Luck - текст песни, таба, видео

Печатать
Просмотров: 121
Band / Artist: Criteria
Album: When We Break (2005)
Song: Good Luck
Tuning: Drop D (DADGBe)
h = Hammer On / p = Pull Off / s = Slide

I tabbed this out because I could only find
a butchered version for Guitar Pro. This is for 
all of you that want the correct tab and don't
have Guitar Pro. Enjoy.

(Intro)
e|-------------------------------------------------------------------------|
B|-------------------2-----------------------------------------------------|
G|-------------------------2-----------------------------------------------|
D|-------4-----2------------------4-4----5-5-5-5-5-5-5-5-7-7-7-7-7-7-7-7---|
A|---------------------------------------5-5-5-5-5-5-5-5-7-7-7-7-7-7-7-7---|
D|-0-0------0-----0-----0-----0----------5-5-5-5-5-5-5-5-7-7-7-7-7-7-7-7---|


(Verse 1)                                        I cant deny Im ashamed
e|-------------------------------------------------------------------------|
B|-------------------2-----------------------------------------------------|
G|-------------------------2-----------------------------------------------|
D|-------4-----2------------------4-4----5-5-5-5-5-5-5-5-7-7-7-7-7-7-7-7---|
A|---------------------------------------5-5-5-5-5-5-5-5-7-7-7-7-7-7-7-7---|
D|-0--------0-----0-----0-----0----------5-5-5-5-5-5-5-5-7-7-7-7-7-7-7-7---|


                                                 So I try to hide it
e|-------------------------------------------------------------------------|
B|-------------------2-----------------------------------------------------|
G|-------------------------2-----------------------------------------------|
D|-------4-----2------------------4-4----5-5-5-5-5-5-5-5-7-7-7-7-7-7-7-7---|
A|---------------------------------------5-5-5-5-5-5-5-5-7-7-7-7-7-7-7-7---|
D|-0--------0-----0-----0-----0----------5-5-5-5-5-5-5-5-7-7-7-7-7-7-7-7---|


                                      Your face has provided me with grace
e|-------------------------------------------------------------------------|
B|-------------------2-----------------------------------------------------|
G|-------------------------2-----------------------------------------------|
D|-------4-----2------------------4-4----5-5-5-5-5-5-5-5-7-7-7-7-7-7-7-7---|
A|---------------------------------------5-5-5-5-5-5-5-5-7-7-7-7-7-7-7-7---|
D|-0--------0-----0-----0-----0----------5-5-5-5-5-5-5-5-7-7-7-7-7-7-7-7---|


                                                 And its been warmly invited
e|-------------------------------------------------------------------------|
B|-------------------2-----------------------------------------------------|
G|-------------------------2-----------------------------------------------|
D|-------4-----2------------------4-4----5-5-5-5-5-5-5-5-7-7-7-7-7-7-7-7---|
A|---------------------------------------5-5-5-5-5-5-5-5-7-7-7-7-7-7-7-7---|
D|-0--------0-----0-----0-----0----------5-5-5-5-5-5-5-5-7-7-7-7-7-7-7-7---|



e|-------------------------------------|
B|-------------------2-----------------|
G|-------------------------2-----------|
D|-------4-----2------------------4-4--|
A|-------------------------------------|
D|-0--------0-----0-----0-----0--------|


 
           I can see my good fortune today   with good reason why
e|-------------------------------------------------------------------------|
B|-------------------------------------------------------------------------|
G|-------------------------------------------------------------------------|
D|-5-5-5-5-5-5-5-5-7-7-7-7-7-7-7-7--5-5-5-5-5-5-5-5-7-7-7-7-7-7-7-7--------|
A|-5-5-5-5-5-5-5-5-7-7-7-7-7-7-7-7--5-5-5-5-5-5-5-5-7-7-7-7-7-7-7-7--------|
D|-5-5-5-5-5-5-5-5-7-7-7-7-7-7-7-7--5-5-5-5-5-5-5-5-7-7-7-7-7-7-7-7--------|


           Im starting a life without luck today
e|-------------------------------------------------------------------------|
B|-------------------------------------------------------------------------|
G|-------------------------------------------------------------------------|
D|-5-5-5-5-5-5-5-5-5-5-5-5-5-5-5-5-----------------------------------------|
A|-5-5-5-5-5-5-5-5-5-5-5-5-5-5-5-5-----------------------------------------|
D|-5-5-5-5-5-5-5-5-5-5-5-5-5-5-5-5-----------------------------------------|


(Chorus) Im out of luck are you the same way? (x2)
e|-2h3p2-5--2h3p2-5--2------|
B|--------------------------|
G|--------------------------|
D|--------------------------|
A|--------------------------|
D|--------------------------|


(x2) Guitar 1       <-SIMULTANIOUS-> (x2) Guitar 2
e|-2h3p2-5--2h3p2-5-2-------| e|--------------------------|
B|--------------------------| B|--------------------------|
G|--------------------------| G|-7-7-7-7-7-7-7-7-7-7-7-7--|
D|--------------------------| D|-7-7-7-7-7-7-7-7-7-7-7-7--|
A|--------------------------| A|-5-5-5-5-5-5-5-5-5-5-5-5--|
D|--------------------------| D|--------------------------|



(Transition) Guitar 1   <-SIMULTANIOUS->  Guitar 2
e|---------10----------------------| e|---------------------------------|
B|-----------10--7-10-12--10--8--7-| B|---------------------------------|
G|---------------------------------| G|---------------------------------|
D|---------------------------------| D|-5-5-5-5-5-5-5-5-7-7-7-7-7-7-7-7-|
A|---------------------------------| A|-5-5-5-5-5-5-5-5-7-7-7-7-7-7-7-7-|
D|---------------------------------| D|-5-5-5-5-5-5-5-5-7-7-7-7-7-7-7-7-|



(Verse 2)                            Rationalize the choice you make today
e|-------------------------------------------------------------------------|
B|-------------------2-----------------------------------------------------|
G|-------------------------2-----------------------------------------------|
D|-------4-----2------------------4-4----5-5-5-5-5-5-5-5-7-7-7-7-7-7-7-7---|
A|---------------------------------------5-5-5-5-5-5-5-5-7-7-7-7-7-7-7-7---|
D|-0--------0-----0-----0-----0----------5-5-5-5-5-5-5-5-7-7-7-7-7-7-7-7---|


                            Because it might be the last youll ever choose 
e|-------------------------------------------------------------------------|
B|-------------------2-----------------------------------------------------|
G|-------------------------2-----------------------------------------------|
D|-------4-----2------------------4-4----5-5-5-5-5-5-5-5-7-7-7-7-7-7-7-7---|
A|---------------------------------------5-5-5-5-5-5-5-5-7-7-7-7-7-7-7-7---|
D|-0--------0-----0-----0-----0----------5-5-5-5-5-5-5-5-7-7-7-7-7-7-7-7---|


                                         With a charmed life I began to see
e|-------------------------------------------------------------------------|
B|-------------------2-----------------------------------------------------|
G|-------------------------2-----------------------------------------------|
D|-------4-----2------------------4-4----5-5-5-5-5-5-5-5-7-7-7-7-7-7-7-7---|
A|---------------------------------------5-5-5-5-5-5-5-5-7-7-7-7-7-7-7-7---|
D|-0--------0-----0-----0-----0----------5-5-5-5-5-5-5-5-7-7-7-7-7-7-7-7---|


                                            Im not the one who designed it
e|-------------------------------------------------------------------------|
B|-------------------2-----------------------------------------------------|
G|-------------------------2-----------------------------------------------|
D|-------4-----2------------------4-4----5-5-5-5-5-5-5-5-7-7-7-7-7-7-7-7---|
A|---------------------------------------5-5-5-5-5-5-5-5-7-7-7-7-7-7-7-7---|
D|-0--------0-----0-----0-----0----------5-5-5-5-5-5-5-5-7-7-7-7-7-7-7-7---|



e|-------------------------------------|
B|-------------------2-----------------|
G|-------------------------2-----------|
D|-------4-----2------------------4-4--|
A|-------------------------------------|
D|-0--------0-----0-----0-----0--------|


 
          So its a matter of personal choice   Im staking my claim
e|-------------------------------------------------------------------------|
B|-------------------------------------------------------------------------|
G|-------------------------------------------------------------------------|
D|-5-5-5-5-5-5-5-5-7-7-7-7-7-7-7-7--5-5-5-5-5-5-5-5-7-7-7-7-7-7-7-7--------|
A|-5-5-5-5-5-5-5-5-7-7-7-7-7-7-7-7--5-5-5-5-5-5-5-5-7-7-7-7-7-7-7-7--------|
D|-5-5-5-5-5-5-5-5-7-7-7-7-7-7-7-7--5-5-5-5-5-5-5-5-7-7-7-7-7-7-7-7--------|


           Im starting a life without luck today
e|-------------------------------------------------------------------------|
B|-------------------------------------------------------------------------|
G|-------------------------------------------------------------------------|
D|-5-5-5-5-5-5-5-5-5-5-5-5-5-5-5-5-----------------------------------------|
A|-5-5-5-5-5-5-5-5-5-5-5-5-5-5-5-5-----------------------------------------|
D|-5-5-5-5-5-5-5-5-5-5-5-5-5-5-5-5-----------------------------------------|


(Breakdown Chorus)(x5)
(refer to chorus for solo on e string - play this as well)
e|------------------------------------------------------------------------|
B|------------------------------------------------------------------------|
G|------------------------------------------------------------------------|
D|-5-5--4--2-2-2--2--0------5-5--4--2-2-4--2--0---------------------------|
A|-5-5--4--2-2-2--2--0------5-5--4--2-2-4--2--0---------------------------|
D|-5-5--4--2-2-2--2--0------5-5--4--2-2-4--2--0---------------------------|


e|------------------------------------------------------------------------|
B|------------------------------------------------------------------------|
G|------------------------------------------------------------------------|
D|-5-5--4--2-2-2--2--0------7-7--0--4-4-4--4--4---------------------------|
A|-5-5--4--2-2-2--2--0------7-7--0--4-4-4--4--4---------------------------|
D|-5-5--4--2-2-2--2--0------7-7--0--4-4-4--4--4---------------------------|


On the 4th turn of the Breakdown this is the solo:
e|-10--------------------------------10----------------------------------|
B|---------10------10s12s10------------------10------7h8p7---------------|
G|----7-7--------------------11---------7-7----------------7-------------|
D|------------7-7-------------------------------7-7----------------------|
A|-----------------------------------------------------------------------|
D|-----------------------------------------------------------------------|


e|-10------------------------------------------------------------------|
B|---------10------10s12s10---------8------7------5h7p5----------------|
G|----7-7--------------------11----------------------------7-----------|
D|------------7-7----------------------7-7----7-7----------------------|
A|---------------------------------------------------------------------|
D|---------------------------------------------------------------------|


Generate a thousand reasons cause only you convince yourself 
e|------------------------------------------------------------------------|
B|------------------------------------------------------------------------|
G|------------------------------------------------------------------------|
D|-5-5--4--2-2-2--2--0------5-5--4--2-2-4--2--0---------------------------|
A|-5-5--4--2-2-2--2--0------5-5--4--2-2-4--2--0---------------------------|
D|-5-5--4--2-2-2--2--0------5-5--4--2-2-4--2--0---------------------------|

                            
  why                     its right
e|------------------------------------------------------------------------|
B|------------------------------------------------------------------------|
G|------------------------------------------------------------------------|
D|-5-5--4--2-2-2--2--0------7-7--0--4-4-4--4--4---------------------------|
A|-5-5--4--2-2-2--2--0------7-7--0--4-4-4--4--4---------------------------|
D|-5-5--4--2-2-2--2--0------7-7--0--4-4-4--4--4---------------------------|



           I can see my good fortune today   with good reason why
e|-------------------------------------------------------------------------|
B|-------------------------------------------------------------------------|
G|-------------------------------------------------------------------------|
D|-5-5-5-5-5-5-5-5-7-7-7-7-7-7-7-7--5-5-5-5-5-5-5-5-7-7-7-7-7-7-7-7--------|
A|-5-5-5-5-5-5-5-5-7-7-7-7-7-7-7-7--5-5-5-5-5-5-5-5-7-7-7-7-7-7-7-7--------|
D|-5-5-5-5-5-5-5-5-7-7-7-7-7-7-7-7--5-5-5-5-5-5-5-5-7-7-7-7-7-7-7-7--------|


           Im starting a life without luck today
e|-------------------------------------------------------------------------|
B|-------------------------------------------------------------------------|
G|-------------------------------------------------------------------------|
D|-5-5-5-5-5-5-5-5-5-5-5-5-5-5-5-5-----------------5-5--4--2-2-4--2--0-----|
A|-5-5-5-5-5-5-5-5-5-5-5-5-5-5-5-5-----------------5-5--4--2-2-4--2--0-----|
D|-5-5-5-5-5-5-5-5-5-5-5-5-5-5-5-5-----------------5-5--4--2-2-4--2--0-----|
Добавлено: 01.06.2012
Вам также может быть интересно:
Другие материалы по этой песне:

Страница создана 19.04.2012
http://primanota.ru/criteria/good-luck-chords.htm
Привет, Гость.
Предлагаем пройти революционный курс по гитаре.
Подарок от PrimaNota.Ru, забирай!