PrimaNota.ru - самый крупный в мире бесплатный архив песенных текстов, аккордов, табулатур и нот


Cristian Castro - Azul - таба, видео

Регистрация Запомнить меня
Войти через:  Facebook Google Twitter Vk Yandex Mail.ru

Cristian Castro - Azul - таба, видео

Печатать
Просмотров: 140
Artist: Cristian Castro
Title: Azul
Album: Azul

Tabbed By Armando Velazco

Intro

Fa                 Do               re
------------------|----------------|-------------|
------------------|----------------|-------------|
------------------|----------------|-------------|
-----------7-8-10-|-------8/10h8\7-|-------------|
-8-(8)-(8)--------|-7--7-----------|----5--5h7/8-|
------------------|----------------|-10----------|

La#          Do      Fa           La#          Do
------------|-------|------------|------------|---------------|
------------|-------|------------|------------|---------------|
------------|-------|------------|----------10|9~~------------|
-------10-8h|10-8\7-|---7/8-10-8h|10~8\7-8----|------(7)-(8)--|
----8-------|-------|-8~~--------|------------|--(10)---------|
-6----------|-------|------------|------------|---------------|

    Fa       Do      re-                    Sol            La#
---|--------|-------|----------------------|--------------|---|
---|--------|---8---|----------------------|--------------|---|
---|--------|-----9/|10~~------------------|--------------|---|
-7h|8~~7----|7~~----|------------------5-5h|7-5-5~~\3-5-3h|5--|
---|-----10-|-------|------(5)-(7)-(8)-----|--------------|---|
---|--------|-------|----------------------|--------------|---|

                   Do             Fa
------------------|--------------|---------------|
---------------11h|10------------|---------------|
-------------10---|--10----------|---------------|
-3-3~~~~///10-----|----10-8\7--8-|-8~~~~~--------|
------------------|--------------|---------------|
------------------|--------------|---------------|

Fa		La#		Do		Re		Sol
0		0		0		0		0
0 		0		0		0		0
0		3		5		7		0
3		3		5		7		5
3		1		3		5		5
1		0		0		0		3


Fa          Do          re
-----------|-----------|-0-------------------------------------------------|
-----------|-----------|-0-------------------------------------------------|
-----------|-----------|-7-------------------------------------------------|
-----------|-----------|-7-------------------------------------------------|
--7/8----8-|-7~~~~-----|-5-------------------------------------------------|
-------8---|------8--5-|-0-------------------------------------------------|

Fa                 La#
Fue una mañana que yo te encontré
Do                Fa      Do     re-
cuando la brisa besaba tu dulce piel
                        Sol
Tus ojos tristes que al ver adoré
   La#               Do
la noche que yo te amé.
Fa                           La#
Azul, cuando en silencio por fin te besé
Do                        Fa        Do   re-
Azul, sentí muy dentro nacer este amor azul
                       Sol
hoy miro al cielo y en ti puedo ver
       La#                 Do
la estrella que siempre soné.


CORO:

Fa                           La#               Do
Azul, y es que este amor es azul como el mar azul

                Fa      Do        re
como de tu mi  rada nació mi ilusión
               Sol                   La#
Azul como una lágrima cuando hay perdón
                Do                      Fa
tan puro y tan azul que me aguó el corazón

Fa                      La#              Do
Y es que este amor es azul como el mar azul

                    Fa       Do           re
como el azul del c~~ielo nació entre los dos
               Sol                 La#
Azul como el lucero de nuestra pasión
               Do                   Fa~~~~~~La#
un manantial azul que me llena de amoouoor.

Fa                   La#
Como el milagro que tanto esperé
Do                 Fa        Do    re-
eres la niña que siempre busqué, Azul
                       Sol
es tu inocencia que quiero entender
     La#              Do
tu principe azul yo seré

Fa                       La#
Azul, es mi locura si estoy junto a ti
Do                   Fa        Do  re-
Azul, rayo de luna serás para mi azul
                    Sol
y con la lluvia pintada de azul
     La#                Do
por siempre serás sólo tú.


CORO:

Fa                           La#               Do
Azul, y es que este amor es azul como el mar azul
Fa      Do        re-
como de tu mi~~rada nació mi ilusión
               Sol                   La#
Azul como una lágrima cuando hay perdón
                Do                      Fa
tan puro y tan azul que me aguó el corazón

Fa                      La#              Do
Y es que este amor es azul como el mar azul
Fa       Do           re-
como el azul del c~~ielo nació entre los dos
               Sol                 La#
Azul como el lucero de nuestra pasión
               Do
un manantial azul que me llena de amoouoor.

SOLO

-----------------------15-17-15h17--15-------------------------------------|
---17'~~~~~~~-------18-----------------18/20~~~~---------------------------|
---------------16/17-------------------------------------9h10-9h10~~~~-----|
----------------------------------------------------10h12------------------|
---------------------------------------------------------------------------|
---------------------------------------------------------------------------|

------------------------13^[10h8]-15^[10h8]-17^[10h8]---21'----------------|
------------------------------------------------------------20''-20-18-20--|
-9\7--5h7--5---------------------------------------------------------------|
---------------7h5-3h5-----------------------------------------------------|
---------------------------------------------------------------------------|
---------------------------------------------------------------------------|


---------------------------------------------------------------------------|
---------------------------------------------------------------------------|
-12h14h15--14---------------------------10/11~~~~~~------------------------|
---------------15-15~~~~--9/10-10-10/11------------------------------------|
---------------------------------------------------------------------------|
---------------------------------------------------------------------------|


---------------------------------------------------------------------------|
---------------------------------------------------------------------------|
---------------------------------------------------------------------------|
---------------------------------------------------------------------------|
-------------6~~~~~~-------------------------------------------------------|
----6/7---9----------------------------------------------------------------|

Fa#                           B                Do#

Azul… es que este amor es azul como el mar azul
              Fa#    Do#        re-#
como de tu mirada nació mi ilusión
               Sol#                  B
Azul como una lágrima cuando hay perdón
                Do#                     Fa#
Tan puro y tan azul que me aguo el corazón

                        B                Do#
Y es que este amor es azul como el mar azul
Fa#     Do#          re
como el azul del c~~ielo nació entre los dos
               Sol#                B
Azul como el lucero de nuestra pasión
              Do#                   Fa#
un manantial azul que me llena de amor.


Y si tienes preguntas mi email es Velav5@hotmail.com


http://www.alma-latina.net/01actors/c/cristian_castro.shtml
http://www.univision.com/content/channel.jhtml?secid=1143
Добавлено: 29.07.2012
Другие материалы по этой песне:
  • Аккорды и текст

Страница создана 29.07.2012
http://primanota.ru/cristian-castro/azul-chords.htm
Привет, Гость.
Предлагаем пройти революционный курс по гитаре.
Подарок от PrimaNota.Ru, забирай!