PrimaNota.ru - самый крупный в мире бесплатный архив песенных текстов, аккордов, табулатур и нот


Criss Angel - Mf2 - таба, видео

Регистрация Запомнить меня
Войти через:  Facebook Google Twitter Vk Yandex Mail.ru

Criss Angel - Mf2 - таба, видео

Печатать
Просмотров: 159
 Name: MF2

Hey I searched all over the internet to find this tab but I couldn't find it, so i 
it myself. I'm not sure if its 100% right but its like 95% pecent right. Hope you like it.

Intro

E:-----------------------------------------|
B:-----------------------------------------|
G:-----------------------------------7-----|   Repeat X3
D:---------------------------------7---7---|
A:--0-00-00-00-00-000-0000----3h5----------|
D:--0-00-00-00-00-000-0000-----------------|
   P.M....................

Into end

E:-------------------------------------------|
B:-------------------------------------------|
G:-------------------------------------------|
D:--5555--5555-------------5555--5555--------|
A:--5555--5555-------------5555--5555--------|
D:--5555--5555-------------5555--5555--------|
             (Are you ready?)          (GO!!!)

Prolouge                                     Guitar 2 plays...
                                                ( Repeat as needed )
E:--------------------------|              E:-----------------------------|
B:--------------------------|              B:-----------------------------|
G:--------------------------| Repeat X6    G:-----------------------------|
D:----5h7-----5h7----5-7----|              D:-----0~-----33h2~------------|
A:--------------------------|              A:-----0~-----33h2~------------|
D:--------------------------|              D:-----0~-----33h2~------------|


Bridge

E:------------------------------------------|
B:------------------------------------------|
G:------------------------------------7-----|
D:----------------------------------7---7---|
A:----------------------------3h5-----------|
D:--0-00-00-00-00-000-00-00-----------------|


Repeat intro for Verse ( Repeat as needed )


Pre-Chorus

E:-----------------|       Repeat Prolouge for Chorus
B:-----------------|          ( Repeat as needed )
G:-----------------|
D:---555---333-----|
A:---555---333-----|
D:---555---333-----|

Chorus End

E:-------------------------------------------------------------|
B:-------------------------------------------------------------|
G:-----------------------------7-------------------------------|
D:---------------------------7---7------------5555---5555------|
A:----------------------3h5-------------------5555---5555------|
D:--2h0--2h0--2h0--2-0------------------------5555---5555------|


Repeat Intro for 2nd Verse
Repeat Bridge
Repeat chorus And Chorus end

E:-------------------------------------------------------|
B:-------------------------------------------------------|
G:------------------------------------------------7------|
D:----------------------------------------------7---7----|
A:-----------------------------------------3h5-----------|
D:--00-2h0-0-2h0--2h0--00--2h0-0-2-0---------------------|

Repeat Chorus and End with Verse.

  Hope you like it Enjoy.


Tabbed by Esteban Wright
Добавлено: 17.06.2012
Другие материалы по этой песне:

Страница создана 04.03.2012
http://primanota.ru/criss-angel/mf2-chords.htm
Привет, Гость.
Предлагаем пройти революционный курс по гитаре.
Подарок от PrimaNota.Ru, забирай!