PrimaNota.ru - самый крупный в мире бесплатный архив песенных текстов, аккордов, табулатур и нот


Crispy Ambulance - Deaf - таба, видео

Регистрация Запомнить меня
Войти через:  Facebook Google Twitter Vk Yandex Mail.ru

Crispy Ambulance - Deaf - таба, видео

Печатать
Просмотров: 74
Band/Artist: Crispy Ambulance
Song: "Deaf"
Album: Unsightly & Serene (1980), Frozen Blood (2000)

Standard tuning
Using a flanger effects pedal, if possible, helps achieve the icy tone
 during the chorus.

Guitar
VERSE
                  Here me, hear me!               Hear me, hear me!
e-X---X-X-X-X-X---X---X-X-X-X-X---X---X-X-X-X-X---X---X-X-X-X-X--|
B-X---X-X-X-X-X---X---X-X-X-X-X---X---X-X-X-X-X---X---X-X-X-X-X--|
G-X---X-X-X-X-X---X---X-X-X-X-X---X---X-X-X-X-X---X---X-X-X-X-X--|
D-X---X-X-X-X-X---X---X-X-X-X-X---X---X-X-X-X-X---X---X-X-X-X-X--|
A-X---X-X-X-X-X---X---X-X-X-X-X---X---X-X-X-X-X---X---X-X-X-X-X--|
E-X---X-X-X-X-X---X---X-X-X-X-X---X---X-X-X-X-X---X---X-X-X-X-X--|
 play percussively

Guitar
CHORUS (I & II)
  Em                              E7sus2
e-7---7-7-7---7-7---7---7-7-7-7---7---7-7-7---7-7---7---7-7-7-7--|
B-8---8-8-8---8-8---8---8-8-8-8---7---7-7-7---7-7---7---7-7-7-7--|
G-9---9-9-9---9-9---9---9-9-9-9---7---7-7-7---7-7---7---7-7-7-7--|
D-9---9-9-9---9-9---9---9-9-9-9---9---9-9-9---9-9---9---9-9-9-9--|
A-7---7-7-7---7-7---7---7-7-7-7---7---7-7-7---7-7---7---7-7-7-7--|
E----------------------------------------------------------------|
cont.
  Em                Em7           E7sus2
e-7---7-7-7---7-7---10--10101010--7---7-7-7---7-7---7---7-7-7-7--||
B-8---8-8-8---8-8---8---8-8-8-8---7---7-7-7---7-7---7---7-7-7-7--||
G-9---9-9-9---9-9---9---9-9-9-9---7---7-7-7---7-7---7---7-7-7-7--||
D-9---9-9-9---9-9---9---9-9-9-9---9---9-9-9---9-9---9---9-9-9-9--||
A-7---7-7-7---7-7---7---7-7-7-7---7---7-7-7---7-7---7---7-7-7-7--||
E----------------------------------------------------------------||
 Play entire sequence twice with flanger effect all the way through
  during CHORUS I & II.


Bass
VERSE
                  Hear me, hear me!               Hear me, hear me!
G----------------------------------------------------------------|
D----------------------------------------------------------------|
A-7---7-7---------------------3---7---7-7---------------------3-5|
E---------0-0-0-1---1---1-3/5-------------0-0-0-1---1---1-3/5----|

Bass
CHORUS I
G----------------------------------------------------------------|
D-------------------10---10/12-10-------------------8-----7h8p7--|
A-7-7---7-7-7-7-8------8----------7-7---7-7-7-7-8-------8-------8|
E----------------------------------------------------------------|
cont.
G----------------------------------------------------------------|
D-------------------7-8-10--8-7---------------------7-8-10--8-7--|
A-7-7---7-7-7-7-8---------------8-7-7---7-7-7-7-8---------------8|
E----------------------------------------------------------------|
cont.
G----------------------------------------------------------------|
D-------------------8-----7h8p7---------------------10---10/12-10|
A-7-7---7-7-7-7-8-------8-------8-7-7---7-7-7-7-8------8---------|
E----------------------------------------------------------------|
cont.
G----------------------------------------------------------------|
D-------------------8-----7h8p7---------------------7-8-10--8-7--|
A-7-7---7-7-7-7-8-------8-------8-7-7---7-7-7-7-8---------------8|
E----------------------------------------------------------------|

Bass
CHORUS II
G----------------------------------------------------------------|
D-------------------10----10------------------------7h8---7h8p7--|
A-7-7---7-7-7-7-8-------8-----8---7-7---7-7-7-7-8---------------8|
E----------------------------------------------------------------|
cont.
G----------------------------------------------------------------|
D-------------------10--8---7-----------------------7-8-10--7----|
A-7-7---7-7-7-7-8-------------8---7-7---7-7-7-7-8-------------8--|
E----------------------------------------------------------------|
cont.
G----------------------------------------------------------------|
D-------------------10---10/12-10-------------------10--8---7----|
A-7-7---7-7-7-7-8------8----------7-7---7-7-7-7-8-------------8--|
E----------------------------------------------------------------|
cont.
G----------------------------------------------------------------|
D-------------------7h8p7h8p7-----------------------7h8p7p8---7--|
A-7-7---7-7-7-7-8-------------8---7-7---7-7-7-7-8---------------8|
E----------------------------------------------------------------|

The song structure is very simple; the Bass comes in with drums at
 0:10 playing the VERSE riff x 8, then at 0:54 the CHORUS I riff
 pattern once through, at 1:16 VERSE riff x 12, then at 2:23 the
 CHORUS II riff pattern once through, the at 2:44 VERSE riff all
 the way to the end.
The guitar plays the muted VERSE percussive riff from 0:00 until
 the it changes to the CHORUS with the Bass at 0:54, then VERSE and
 CHORUS again once more, then percussive VERSE riff until the end,
 VERY easy.   

That's it. Feel free to leave any comments, corrections, suggestions,
 or requests. Cheers!

-Bennyshambles78-
Добавлено: 20.09.2013
Другие материалы по этой песне:
  • Аккорды и текст

Страница создана 20.09.2013
http://primanota.ru/crispy-ambulance/deaf-chords.htm
Привет, Гость.
Предлагаем пройти революционный курс по гитаре.
Подарок от PrimaNota.Ru, забирай!