PrimaNota.ru - самый крупный в мире бесплатный архив песенных текстов, аккордов, табулатур и нот


Crispy Ambulance - Are You Ready - таба, видео

Регистрация Запомнить меня
Войти через:  Facebook Google Twitter Vk Yandex Mail.ru

Crispy Ambulance - Are You Ready - таба, видео

Печатать
Просмотров: 88
Уроки эстрадного вокала в Санкт-Петербурге
Band/Artist: Crispy Ambulance
Song: "Are You Ready?"
Album: The Plateau Phase

Standard tuning

Guitar
RIFF 1
e-------------------------------------------------------------------|
B-------------------------------------------------------------------|
G-------------------------------------------------------------------|
D----------------------------------/9~------------------------------|
A-5-------4--------7\------2----------------------------------------|
E-------------------------------------------------------------------|
RIFF 1 variation 1
e-------------------------------------------------------------------|
B-------------------------------------------------------------------|
G-------------------------------------------------------------------|
D----------------------------------/9--9--9--9--9----9--9--9--9--9--|
A-5-------4--------7\------2----------------------------------------|
E-------------------------------------------------------------------|
RIFF 1 variation 2
e-------------------------------------------------------------------|
B-------------------------------------------------------------------|
G-------------------------------------------------------------------|
D----------------------------------/9--9--9--9--9\---7--7--7--7--7--|
A-5-------4--------7\------2----------------------------------------|
E-------------------------------------------------------------------|


RIFF 2
  Am               Fsus2            Dsus2
e-5--5--5--5--5----8--8--8--8--8----5--5--5--5--5-------------------|
B-5--5--5--5--5----8--8--8--8--8----5--5--5--5--5-------------------|
G-5--5--5--5--5----10-10-10-10-10---7--7--7--7--7-------------------|
D-7--7--7--7--7----10-10-10-10-10---7--7--7--7--7-------------------|
A-7--7--7--7--7----8--8--8--8--8----5--5--5--5--5----5-------4~-----|
E-5--5--5--5--5-----------------------------------------------------|

Guitar part sequence during song:
@ 0:46
RIFF 1 x2
RIFF 1 variation 1 x4
RIFF 2 x4
RIFF 1 variation 1 x1
RIFF 1 variation 2 x1
RIFF 1 variation 1 x5
REST for 2 measures
RIFF 2 x4
RIFF 1 variation 1 x1
RIFF 1 variation 2 x1
RIFF 1 variation 1 x4
fades out of RIFF 1 with droning open A string

Bass
RIFF 1
G-------------------------------------------------------------------|
D-------------------------------------------------------------------|
A-0----------------0----------------0----------------0--------------|
E-------------------------------------------------------------------|

RIFF 2
G-------------------------------------------------------------------||
D-7--7--7--7--7----3--3--3--3--3------------------------------------|| x 2
A-----------------------------------5--5--5--5--5----0--------------||
E-------------------------------------------------------------------||
R2 cont.
G-------------------------------------------------------------------|
D-7--7--7--7--7----3--3--3--3--3----5--5--5--5--5-------------------|
A----------------------------------------------------0--------------|
E-------------------------------------------------------------------|
R2 cont.
G-------------------------------------------------------------------|
D-7--7--7--7--7----3--3--3--3--3------------------------------------|
A-----------------------------------5--5--5--5--5----0--------------|
E-------------------------------------------------------------------|

Bass part sequence during song
@ 0:22
RIFF 1 x9
RIFF 2 x1
RIFF 1 x9
RIFF 2 x1
RIFF 1 ad infinitum (All the way to the end with fade out.)


Keyboard/Synthesizer(transposed to guitar tab)
Drones A with Bass note until Guitar and Bass RIFF 2 where the synthesizer
 manipulates filters and oscillators to create whistling noise, then
 during the second verse it starts RIFF 1 @ 2:15
RIFF 1 
e-------5--3--5----------------3---------------------------5--3-----|
B------------------------5--6-------------3--5--6----------------5--|
G-------------------------------------------------------------------|
D-------------------------------------------------------------------|
A-------------------------------------------------------------------|
E-------------------------------------------------------------------|
@ 2:45 drone E and low A, then filter sweeps during Guitar/Bass RIFF 2
@ 3:34 drone low A
@ 3:50 play RIFF 1 into
@ 4:21 RIFF 2
drone low A until fade out

RIFF 2
e-------5----------------3----------------8------5p3----------------|
B----------------------------------------------------5--------------|
G-------------------------------------------------------------------|
D-------------------------------------------------------------------|
A-------------------------------------------------------------------|
E-------------------------------------------------------------------|
R2 cont.
e-5----------------3----------------8------------5p3----------------|
B----------------------------------------------------5--------------|
G-------------------------------------------------------------------|
D-------------------------------------------------------------------|
A-------------------------------------------------------------------|
E-------------------------------------------------------------------|
R2 cont.
e-8------------5p3------------------8------------5p3----------------|
B------------------5---------------------------------5--------------|
G-------------------------------------------------------------------|
D-------------------------------------------------------------------|
A-------------------------------------------------------------------|
E-------------------------------------------------------------------|
R2 cont.
e-5----------------3----------------8------------5-3----------------|
B----------------------------------------------------5--------------|
G-------------------------------------------------------------------|
D-------------------------------------------------------------------|
A-------------------------------------------------------------------|
E-------------------------------------------------------------------|
R2 cont.
e-5----------------3----------------8------------5-3----------------|
B----------------------------------------------------5--------------|
G-------------------------------------------------------------------|
D-------------------------------------------------------------------|
A-------------------------------------------------------------------|
E-------------------------------------------------------------------|
R2 cont.
e-8------------5p3------------------8------------5p3----------------|
B------------------5---------------------------------5--------------|
G-------------------------------------------------------------------|
D-------------------------------------------------------------------|
A-------------------------------------------------------------------|
E-------------------------------------------------------------------|

Drones A with Bass note until Guitar and Bass RIFF 2 where the synthesizer
 manipulates filters and oscillators to create whistling noise. 
 @ 2:15 RIFF 1
 @ 2:45 drone E and low A, then filter sweeps during Guitar/Bass RIFF 2
 @ 3:34 drone low A
 @ 3:50 play RIFF 1 into
 @ 4:21 RIFF 2
 Into a droning A note with filter manipulation into fade out.

That's it. Please fee free to leave any comments, corrections,
 suggestions, or requests. Cheers!

-Bennyshambles78-
Добавлено: 02.12.2013
Другие материалы по этой песне:
  • Аккорды и текст

Страница создана 02.12.2013
http://primanota.ru/crispy-ambulance/are-you-ready-chords.htm
Привет, Гость.
Предлагаем пройти революционный курс по гитаре.
Подарок от PrimaNota.Ru, забирай!