PrimaNota.ru - самый крупный в мире бесплатный архив песенных текстов, аккордов, табулатур и нот


Crippled Black Phoenix - When Youre Gone - таба, видео

Регистрация Запомнить меня
Войти через:  Facebook Google Twitter Vk Yandex Mail.ru

Crippled Black Phoenix - When Youre Gone - таба, видео

Печатать
Просмотров: 96
h - hammer on/pull off
M - palm mute

E |----------------|----------------|----------------|----|----------------|
B |----------------|----------------|----------------|----|----------------|
G |--------0-------|----------------|--------0-------|----|--------0-------|
D |-----0----------|----------------|-----0----------|----|-----0----------|
A |--2-------------|--------0h-2----|--3-------------|----|--2-------------|
E |----------------|----------------|----------------|----|----------------|


----------------|----------------|----|----------------|----------------|
----------------|----------------|----|----------------|----------------|
----------------|--------0-------|----|--------0-------|----------------|
----------------|-----0----------|----|-----0----------|----------------|
--------0h-2----|--3-------------|----|--2-------------|--------0h-2----|
----------------|----------------|----|----------------|----------------|


----------------|----|----------------|----------------|----------------|----|
----------------|----|----------------|----------------|----------------|----|
--------0-------|----|--------0-------|----------------|--------0-------|----|
-----0----------|----|-----0----------|----------------|-----0----------|----|
--3-------------|----|--2-------------|--------0h-2----|--3-------------|----|
----------------|----|----------------|----------------|----------------|----|


----------------|----------------|-------------|----|----------------|
----------------|----------------|-------------|----|----------------|
--------0-------|--------0-------|--------0----|----|--------0-------|
-----0-----0----|-----0-----0----|-----0-------|----|-----0-----0----|
--5-------------|--7-------------|--3----------|----|--5-------------|
----------------|----------------|-------------|----|----------------|


----------------|-------------|----|----------------|----------------|
----------------|-------------|----|----------------|----------------|
--------0-------|--------0----|----|--------0-------|----------------|
-----0-----0----|-----0-------|----|-----0----------|----------------|
--7-------------|--3----------|----|--2-------------|--------0h-2----|
----------------|-------------|----|----------------|----------------|


----------------|----|----------------|----------------|----------------|----|
----------------|----|----------------|----------------|----------------|----|
--------0-------|----|--------0-------|----------------|--------0-------|----|
-----0----------|----|-----0----------|----------------|-----0----------|----|
--3-------------|----|--2-------------|--------0h-2----|--3-------------|----|
----------------|----|----------------|----------------|----------------|----|


----------------|----------------|----------------|----|----------------|
----------------|----------------|----------------|----|----------------|
--------0-------|----------------|--------0-------|----|--------0-------|
-----0----------|----------------|-----0----------|----|-----0----------|
--2-------------|--------0h-2----|--3-------------|----|--2-------------|
----------------|----------------|----------------|----|----------------|


----------------|----------------|----|----------------|----------------|
----------------|----------------|----|----------------|----------------|
----------------|--------0-------|----|--------0-------|--------0-------|
----------------|-----0----------|----|-----0-----0----|-----0-----0----|
--------0h-2----|--3-------------|----|--5-------------|--7-------------|
----------------|----------------|----|----------------|----------------|


-------------|----|----------------|----------------|-------------|----|
-------------|----|----------------|----------------|-------------|----|
--------0----|----|--------0-------|--------0-------|--------0----|----|
-----0-------|----|-----0-----0----|-----0-----0----|-----0-------|----|
--3----------|----|--5-------------|--7-------------|--3----------|----|
-------------|----|----------------|----------------|-------------|----|


----------------|----------------|-------------|----|----------------|
----------------|----------------|-------------|----|----------------|
--------0-------|--------0-------|--------0----|----|--------0-------|
-----0-----0----|-----0-----0----|-----0-------|----|-----0-----0----|
--5-------------|--7-------------|--3----------|----|--5-------------|
----------------|----------------|-------------|----|----------------|


----------------|-------------|----|----------------------------|
----------------|-------------|----|----------------------------|
--------0-------|--------0----|----|----------------------------|
-----0-----0----|-----0-------|----|--9M-9M-9M-9M-9M-9M-9M-9M---|
--7-------------|--3----------|----|--7M-7M-7M-7M-7M-7M-7M-7M---|
----------------|-------------|----|----------------------------|


----------------------------|----------------------------|
----------------------------|----------------------------|
----------------------------|----------------------------|
--7M-7M-7M-7M-7M-7M-7M-7M---|--5M-5M-5M-5M-5M-5M-5M-5M---|
--5M-5M-5M-5M-5M-5M-5M-5M---|--3M-3M-3M-3M-3M-3M-3M-3M---|
----------------------------|----------------------------|


----------------------------|----------------------------|
----------------------------|----------------------------|
----------------------------|----------------------------|
--5M-5M-5M-5M-5M-7M-7M-7M---|--9M-9M-9M-9M-9M-9M-9M-9M---|
--3M-3M-3M-3M-3M-5M-5M-5M---|--7M-7M-7M-7M-7M-7M-7M-7M---|
----------------------------|----------------------------|


----------------------------|----------------------------|
----------------------------|----------------------------|
----------------------------|----------------------------|
--7M-7M-7M-7M-7M-7M-7M-7M---|--5M-5M-5M-5M-5M-5M-5M-5M---|
--5M-5M-5M-5M-5M-5M-5M-5M---|--3M-3M-3M-3M-3M-3M-3M-3M---|
----------------------------|----------------------------|


----------------------------|----------------------------|
----------------------------|----------------------------|
----------------------------|----------------------------|
--5M-5M-5M-5M-5M-7M-7M-7M---|--9M-9M-9M-9M-9M-9M-9M-9M---|
--3M-3M-3M-3M-3M-5M-5M-5M---|--7M-7M-7M-7M-7M-7M-7M-7M---|
----------------------------|----------------------------|


----------------------------|----------------------------|
----------------------------|----------------------------|
----------------------------|----------------------------|
--7M-7M-7M-7M-7M-7M-7M-7M---|--5M-5M-5M-5M-5M-5M-5M-5M---|
--5M-5M-5M-5M-5M-5M-5M-5M---|--3M-3M-3M-3M-3M-3M-3M-3M---|
----------------------------|----------------------------|


----------------------------|----------------------------|
----------------------------|----------------------------|
----------------------------|----------------------------|
--5M-5M-5M-5M-5M-7M-7M-7M---|--9M-9M-9M-9M-9M-9M-9M-9M---|
--3M-3M-3M-3M-3M-5M-5M-5M---|--7M-7M-7M-7M-7M-7M-7M-7M---|
----------------------------|----------------------------|


----------------------------|----------------------------|
----------------------------|----------------------------|
----------------------------|----------------------------|
--7M-7M-7M-7M-7M-7M-7M-7M---|--5M-5M-5M-5M-5M-5M-5M-5M---|
--5M-5M-5M-5M-5M-5M-5M-5M---|--3M-3M-3M-3M-3M-3M-3M-3M---|
----------------------------|----------------------------|


----------------------------|----------------|----------------|----------------|
----------------------------|--0--0--0--0----|--0--0--0--0----|----------------|
----------------------------|--4--4--4--4----|--4--4--4--4----|--5--5--5--5----|
--5M-5M-5M-5M-5M-5M-5M-5M---|--5--5--5--5----|--5--5--5--5----|--5--5--5--5----|
--3M-3M-3M-3M-3M-3M-3M-3M---|--5--5--5--5----|--5--5--5--5----|--5--5--5--5----|
----------------------------|--7--7--7--7----|--7--7--7--7----|--8--8--8--8----|


-------------------------|----------------|----------------|----------------|
-------------------------|--0--0--0--0----|--0--0--0--0----|----------------|
--5-----5-----5--5-------|--4--4--4--4----|--4--4--4--4----|--5--5--5--5----|
--5-----5-----5--5-------|--5--5--5--5----|--5--5--5--5----|--5--5--5--5----|
--5-----5-----5--5-------|--5--5--5--5----|--5--5--5--5----|--5--5--5--5----|
--8-----8-----8--8-------|--7--7--7--7----|--7--7--7--7----|--8--8--8--8----|


-------------------------|----------------|----------------|----------------|
-------------------------|--0--0--0--0----|--0--0--0--0----|----------------|
--5-----5-----5--5-------|--4--4--4--4----|--4--4--4--4----|--5--5--5--5----|
--5-----5-----5--5-------|--5--5--5--5----|--5--5--5--5----|--5--5--5--5----|
--5-----5-----5--5-------|--5--5--5--5----|--5--5--5--5----|--5--5--5--5----|
--8-----8-----8--8-------|--7--7--7--7----|--7--7--7--7----|--8--8--8--8----|


-------------------------|----------------|----------------|----------------|
-------------------------|--0--0--0--0----|--0--0--0--0----|----------------|
--5-----5-----5--5-------|--4--4--4--4----|--4--4--4--4----|--5--5--5--5----|
--5-----5-----5--5-------|--5--5--5--5----|--5--5--5--5----|--5--5--5--5----|
--5-----5-----5--5-------|--5--5--5--5----|--5--5--5--5----|--5--5--5--5----|
--8-----8-----8--8-------|--7--7--7--7----|--7--7--7--7----|--8--8--8--8----|


-------------------------|----------------|----------------|----------------|
-------------------------|----------------|----------------|----------------|
--5-----5-----5--5-------|----------------|----------------|----------------|
--5-----5-----5--5-------|--14-14-14-14---|--12-12-12-12---|--10-10-10-10---|
--5-----5-----5--5-------|--14-14-14-14---|--12-12-12-12---|--10-10-10-10---|
--8-----8-----8--8-------|--12-12-12-12---|--10-10-10-10---|--8--8--8--8----|


-------------------------|----------------|----------------|----------------|
-------------------------|----------------|----------------|----------------|
-------------------------|----------------|----------------|----------------|
--10----10----10----10---|--14-14-14-14---|--12-12-12-12---|--10-10-10-10---|
--10----10----10----10---|--14-14-14-14---|--12-12-12-12---|--10-10-10-10---|
--8-----8-----8-----8----|--12-12-12-12---|--10-10-10-10---|--8--8--8--8----|


-------------------------|----------------|----------------|----------------|
-------------------------|----------------|----------------|----------------|
-------------------------|----------------|----------------|----------------|
--10----10----10----10---|--14-14-14-14---|--12-12-12-12---|--10-10-10-10---|
--10----10----10----10---|--14-14-14-14---|--12-12-12-12---|--10-10-10-10---|
--8-----8-----8-----8----|--12-12-12-12---|--10-10-10-10---|--8--8--8--8----|


-------------------------|----------------|----------------|----------------|
-------------------------|----------------|----------------|----------------|
-------------------------|----------------|----------------|----------------|
--10----10----10----10---|--14-14-14-14---|--12-12-12-12---|--10-10-10-10---|
--10----10----10----10---|--14-14-14-14---|--12-12-12-12---|--10-10-10-10---|
--8-----8-----8-----8----|--12-12-12-12---|--10-10-10-10---|--8--8--8--8----|


-------------------------|----------------|----------------|----------------|
-------------------------|----------------|----------------|----------------|
-------------------------|--------5-------|--7-----5-------|----------------|
--10----10----10----10---|--7--7--7--7----|--5--7--7--7----|--3--3--3--5----|
--10----10----10----10---|--7--7--7--7----|--7--7--7--7----|--3--3--3--5----|
--8-----8-----8-----8----|--5--5--5--5----|--5--5--5--5----|--1--1--1--3----|


----------------|----------------|----------------|----------------|
----------------|----------------|----------------|----------------|
----------------|--------5-------|--7-----5-------|----------------|
--5--5--5--5----|--7--7--7--7----|--5--7--7--7----|--3--3--3--5----|
--5--5--5--5----|--7--7--7--7----|--7--7--7--7----|--3--3--3--5----|
--3--3--3--3----|--5--5--5--5----|--5--5--5--5----|--1--1--1--3----|


----------------|----------------|----------------|----------------|
----------------|----------------|----------------|----------------|
----------------|--------5-------|--7-----5-------|----------------|
--5--5--5--5----|--7--7--7--7----|--5--7--7--7----|--3--3--3--5----|
--5--5--5--5----|--7--7--7--7----|--7--7--7--7----|--3--3--3--5----|
--3--3--3--3----|--5--5--5--5----|--5--5--5--5----|--1--1--1--3----|


----------------|----------------|----------------|----------------|
----------------|----------------|----------------|----------------|
----------------|--------5-------|--7-----5-------|----------------|
--5--5--5--5----|--7--7--7--7----|--5--7--7--7----|--3--3--3--5----|
--5--5--5--5----|--7--7--7--7----|--7--7--7--7----|--3--3--3--5----|
--3--3--3--3----|--5--5--5--5----|--5--5--5--5----|--1--1--1--3----|


----------------|----------------|----------------|----|----|----------------|
----------------|----------------|----------------|----|----|----------------|
----------------|----------------|----------------|----|----|--------0-------|
--5--5--5--5----|--5--5--5--5----|--5--5--5--5----|----|----|-----0----------|
--5--5--5--5----|--5--5--5--5----|--5--5--5--5----|----|----|--2-------------|
--3--3--3--3----|--3--3--3--3----|--3--3--3--3----|----|----|----------------|


----------------|----------------|----|----------------|----------------|
----------------|----------------|----|----------------|----------------|
----------------|--------0-------|----|--------0-------|----------------|
----------------|-----0----------|----|-----0----------|----------------|
--------0h-2----|--3-------------|----|--2-------------|--------0h-2----|
----------------|----------------|----|----------------|----------------|


----------------|----|----------------|----------------|----------------|----|
----------------|----|----------------|----------------|----------------|----|
--------0-------|----|--------0-------|----------------|--------0-------|----|
-----0----------|----|-----0----------|----------------|-----0----------|----|
--3-------------|----|--2-------------|--------0h-2----|--3-------------|----|
----------------|----|----------------|----------------|----------------|----|


----------------|----------------|----------------|----|----------------|
----------------|----------------|----------------|----|----------------|
--------0-------|----------------|--------0-------|----|--------0-------|
-----0----------|----------------|-----0----------|----|-----0-----0----|
--2-------------|--------0h-2----|--3-------------|----|--5-------------|
----------------|----------------|----------------|----|----------------|


----------------|-------------|----|----------------|----------------|
----------------|-------------|----|----------------|----------------|
--------0-------|--------0----|----|--------0-------|--------0-------|
-----0-----0----|-----0-------|----|-----0-----0----|-----0-----0----|
--7-------------|--3----------|----|--5-------------|--7-------------|
----------------|-------------|----|----------------|----------------|


-------------|----||
-------------|----||
--------0----|----||
-----0-------|----||
--3----------|----||
-------------|----||

Добавлено: 01.12.2013
Другие материалы по этой песне:
  • Аккорды и текст

Страница создана 01.12.2013
http://primanota.ru/crippled-black-phoenix/when-youre-gone-chords.htm
Привет, Гость.
Предлагаем пройти революционный курс по гитаре.
Подарок от PrimaNota.Ru, забирай!