PrimaNota.ru - самый крупный в мире бесплатный архив песенных текстов, аккордов, табулатур и нот


Criolo - Pegue Pra Ela - таба, видео

Регистрация Запомнить меня
Войти через:  Facebook Google Twitter Vk Yandex Mail.ru

Criolo - Pegue Pra Ela - таба, видео

Печатать
Просмотров: 16
---------------------------------------|
---------------------------------------|
--------2------------------------------|
---------2--454-2h4p2------------------|
----32----3----------3-----------------|
--05-----------------------------------|
pm.....................

---------------------------------------| (11x)
-----1010----------------88------------|
--99-------9-7-5------99-----9-7-5-----|
---------------------------------------|
---------------------------------------|
---------------------------------------|

-----------------------------------5\--|
-----1010----------------88--------5\--|
--99-------9-7-5------99-----9-7-5-----|
---------------------------------------|
---------------------------------------|
---------------------------------------|

----15(p)14----|
---------------|
---------------|
---------------|
---------------|
---------------|

------------------------------------------------------|
------------------------------------------------------|
--11--9--7-----5--4--------11--9--7-----5--7--4-------|
--11--9--7-----5--4--5-----11--9--7-----5--7--4-------|
--9---7--5-----3--2--5-----9---7--5-----3--5--2-------|
---------------------3--------------------------------|

-----------------------------------------------|---------|-----------|
-----------------------------------------------|---------|-----------|
-----------------------------------------------|-1211-911|-1211-97---|
----------------------------9-7-----1097-91012-|---------|-----------|
-----------7-5----975-79-10----10--------------|---------|-----------|
--753-57-8----8--------------------------------|---------|-----------|

--------------------------|
--8-10-------10-8---------|
---9----975----9---975----|
--------------------------|
--------------------------|
--------------------------|
Добавлено: 20.06.2016
Другие материалы по этой песне:
  • Аккорды и текст

Страница создана 20.06.2016
http://primanota.ru/criolo/pegue-pra-ela-chords.htm
Привет, Гость.
Предлагаем пройти революционный курс по гитаре.
Подарок от PrimaNota.Ru, забирай!