PrimaNota.ru - самый крупный в мире бесплатный архив песенных текстов, аккордов, табулатур и нот


Crimson Glory - March To Glory - текст песни, таба, видео

Регистрация Запомнить меня
Войти через:  Facebook Google Twitter Vk Yandex Mail.ru

Crimson Glory - March To Glory - текст песни, таба, видео

Печатать
Просмотров: 211
As recorded by Crimson Glory
(From the 1999 Album ASTRONOMICA)

Transcribed by zrock12
        

Music by Jon Drenning, Jeff Lords
Arranged by Jon Drenning, Jeff Lords

Gtr I (E A D G B E) - 'Untitled'
Gtr II (E A D G B E) - 'Untitled'
Gtr III (E A D G B E) - 'Untitled'

 Intro
  Q=110
 4/4          1/4    4/4
  Gtr I
                      |-3-|    |-3-|
  Wx8          Q      E E E q  E E E q   3x
|------------|----||---------------------||
|------------|----||o-------------------o||
|------------|----||---------------------||
|------------|----||---------------------||
|------------|-4--||o-4-4-4-4--4-4-4-4--o||
|------------|----||---------------------||


  |-3-|    |-3--|            |-3--|    |-3-|
  E E E q  E  E E     q      E  E E q  E E E  q
|------------------------|-----------------------|
|------------------------|-----------------------|
|------------------------|-----------------------|
|------------------------|-----------------------|
|-4-4-4-4--4--4-4-----4--|---4--4-4-4--4-4-4--4--|
|------------------------|-----------------------|
|
| Gtrs II, III
| H        E.      S  Q     +H         Q      Q
|----------9------11-12--|-(12)--------9-----11--|
|------------------------|-----------------------|
|----------6-------8--9--|--(9)--------6------8--|
|------------------------|-----------------------|
|------------------------|-----------------------|
|------------------------|-----------------------|
  H        E.      S  Q     +H         Q      Q


    |-3--|    |-3--|            |-3--|    |-3-|
    E  E E q  E  E E     q      E  E E q  E E E q
|---------------------------|----------------------|
|---------------------------|----------------------|
|---------------------------|----------------------|
|---------------------------|----------------------|
|---4--4-4-4--4--4-4-----4--|---4--4-4-4--4-4-4-4--|
|---------------------------|----------------------|
|
|  +H         E.      S  Q     +H         q     Q
|-(11)--------9------11-12--|-(12)--------9-----9--|
|---------------------------|----------------------|
|--(8)--------6-------8--9--|--(9)--------6-----6--|
|---------------------------|----------------------|
|---------------------------|----------------------|
|---------------------------|----------------------|
   +H         E.      S  Q     +H         q     Q


   |-3-|     |-3-|         |-3--|    |-3-|
   E E E  q  E E E  q      E  E E q  E E E  q
|----------------------|-----------------------|
|----------------------|-----------------------|
|----------------------|-----------------------|
|----------------------|-----------------------|
|--4-4-4--4--4-4-4--4--|---4--4-4-4--4-4-4--4--|
|----------------------|-----------------------|
|
|  Q      H         Q     +H         Q      Q
|--------11--------12--|-(12)--------9-----11--|
|-12-------------------|-----------------------|
|---------8---------9--|--(9)--------6------8--|
|--9-------------------|-----------------------|
|----------------------|-----------------------|
|----------------------|-----------------------|
   Q      H         Q     +H         Q      Q


    |-3--|    |-3--|            |-3--|    |-3-|
    E  E E q  E  E E     q      E  E E q  E E E q
|---------------------------|-----------------------|
|---------------------------|-----------------------|
|---------------------------|-----------------------|
|---------------------------|-----------------------|
|---4--4-4-4--4--4-4-----4--|---4--4-4-4--4-4-4-4---|
|---------------------------|-----------------------|
|
|  +H         E.      S  Q     +H         q     Q
|-(11)--------9------11-12--|-(12)--------9-----9---|
|---------------------------|-----------------------|
|--(8)--------6-------8--9--|--(9)--------6-----6---|
|---------------------------|-----------------------|
|---------------------------|-----------------------|
|---------------------------|-----------------------|
   +H         E.      S  Q     +H         q     Q


   |-3-|       |-3--|         |-3--|    |-3-|
   E E E  q    E  E E    q    E  E E q  E E E q
|---------------------------|--------------------|
|---------------------------|--------------------|
|---------------------------|--------------------|
|---------------------------|--------------------|
|--4-4-4--4----4--4-4----4--|-4--4-4-4--4-4-4-4--|
|---------------------------|--------------------|
|
|  Q      Q   +E.      S q    H.              Q
|--------11--(11)--------9--|-----------------9--|
|-12------------------12----|--------------------|
|---------8---(8)--------6--|-----------------6--|
|--9-------------------9----|--------------------|
|---------------------------|--------------------|
|---------------------------|--------------------|
   Q      Q   +E.      S q    H.              Q


   |-3-|       |-3--|         |-3-|    |-3-|
   E E E  q    E  E E    q    E E E q  E E E q
|---------------------------|-------------------|
|---------------------------|-------------------|
|---------------------------|-------------------|
|---------------------------|-------------------|
|--4-4-4--4----4--4-4----4--|-4-4-4-4--4-4-4-4--|
|---------------------------|-------------------|
|
|  Q      Q   +E.      S q    W
|--------11--(11)--------9--|-------------------|
|-12------------------12----|-------------------|
|---------8---(8)--------6--|-------------------|
|--9-------------------9----|-------------------|
|---------------------------|-------------------|
|---------------------------|-------------------|
   Q      Q   +E.      S q    W


  $
  |-3-|     |-3--|            |-3--|     |-3-|
  E E E q   E  E E     q      E  E E q   E E E  q
|-------------------------|------------------------|
|-------------------------|------------------------|
|-------------------------|------------------------|
|-------------------------|------------------------|
|-4-4-4-4---4--4-4-----4--|---4--4-4-4---4-4-4--4--|
|-------------------------|------------------------|
|
| H         E.      S  Q     +H          Q      Q
|----------12------14-16--|-(16)--------12-----16--|
|-------------------------|------------------------|
|-----------9------11-13--|-(13)---------9-----13--|
|-------------------------|------------------------|
|-------------------------|------------------------|
|-------------------------|------------------------|
  H         E.      S  Q     +H          Q      Q


    |-3--|     |-3--|            |-3--|    |-3-|
    E  E E q   E  E E     q      E  E E q  E E E q
|----------------------------|----------------------|
|----------------------------|----------------------|
|----------------------------|----------------------|
|----------------------------|----------------------|
|---4--4-4-4---4--4-4-----4--|---4--4-4-4--4-4-4-4--|
|----------------------------|----------------------|
|
|  +H          E.      S  Q     +H         q     Q
|-(16)--------14------16-17--|-(17)--------9-----9--|
|----------------------------|----------------------|
|-(13)--------11------13-14--|-(14)--------6-----6--|
|----------------------------|----------------------|
|----------------------------|----------------------|
|----------------------------|----------------------|
   +H          E.      S  Q     +H         q     Q


  |-3-|      |-3-|         |-3--|     |-3-|
  E E E   q  E E E  q      E  E E q   E E E  q
|----------------------|------------------------|
|----------------------|------------------------|
|----------------------|------------------------|
|----------------------|------------------------|
|-4-4-4---4--4-4-4--4--|---4--4-4-4---4-4-4--4--|
|----------------------|------------------------|
|
| Q       H         Q     +H          Q      Q
|-7-----/16--------16--|-(16)--------12-----16--|
|----------------------|------------------------|
|-4-----/13--------13--|-(13)---------9-----13--|
|----------------------|------------------------|
|----------------------|------------------------|
|----------------------|------------------------|
  Q       H         Q     +H          Q      Q


    |-3--|     |-3--|            |-3--|    |-3-|
    E  E E q   E  E E     q      E  E E q  E E E q
|----------------------------|-----------------------|
|----------------------------|-----------------------|
|----------------------------|-----------------------|
|----------------------------|-----------------------|
|---4--4-4-4---4--4-4-----4--|---4--4-4-4--4-4-4-4---|
|----------------------------|-----------------------|
|
|  +H          E.      S  Q     +H         q     Q
|-(16)--------14------16-17--|-(17)--------9-----9---|
|----------------------------|-----------------------|
|-(13)--------11------13-14--|-(14)--------6-----6---|
|----------------------------|-----------------------|
|----------------------------|-----------------------|
|----------------------------|-----------------------|
   +H          E.      S  Q     +H         q     Q


  |-3-|        |-3--|          |-3--|    |-3-|
  E E E   q    E  E E     q    E  E E q  E E E q
|----------------------------|--------------------|
|----------------------------|--------------------|
|----------------------------|--------------------|
|----------------------------|--------------------|
|-4-4-4---4----4--4-4-----4--|-4--4-4-4--4-4-4-4--|
|----------------------------|--------------------|
|
| Q       Q   +E.      S  q    H.              Q
|-7-----/16--(16)------------|-----------------9--|
|---------------------12-14--|--------------------|
|-4-----/13--(13)------------|-----------------6--|
|----------------------9-11--|--------------------|
|----------------------------|--------------------|
|----------------------------|--------------------|
  Q       Q   +E.      S  q    H.              Q


                                         To Coda
  |-3-|        |-3--|          |-3-|    |-3-|
  E E E   q    E  E E     q    E E E q  E E E q
|----------------------------|-------------------|
|----------------------------|-------------------|
|----------------------------|-------------------|
|----------------------------|-------------------|
|-4-4-4---4----4--4-4-----4--|-4-4-4-4--4-4-4-4--|
|----------------------------|-------------------|
|
| Q       Q   +E.      S  q    W
|-7-----/16--(16)------------|-------------------|
|---------------------12-14--|-------------------|
|-4-----/13--(13)------------|-------------------|
|----------------------9-11--|-------------------|
|----------------------------|-------------------|
|----------------------------|-------------------|
  Q       Q   +E.      S  q    W


   Interlude
    |-3--|    |-3-|         |-3--|     |-3-|
    E  E E q  E E E  q      E  E E  q  E E E  q
||----------------------|------------------------|
||o---------------------|------------------------|
||----------------------|------------------------|
||----------------------|------------------------|
||o-4--4-4-4--4-4-4--4--|---4--4-4--4--4-4-4--4--|
||----------------------|------------------------|
|
|   H.               Q     +Q       H         Q
||----------------------|----------17------------|
||o-----------------17--|-(17)---------------16--|
||----------------------|----------14------------|
||------------------14--|-(14)---------------13--|
||o---------------------|------------------------|
||----------------------|------------------------|
    H.               Q     +Q       H         Q


    |-3--|     |-3-|         |-3--|     |-3-|
    E  E E  q  E E E  q      E  E E  q  E E E  q
|------------------------|-------------------------|
|------------------------|-------------------------|
|------------------------|-------------------------|
|------------------------|-------------------------|
|---4--4-4--4--4-4-4--4--|---4--4-4--4--4-4-4--4---|
|------------------------|-------------------------|
|
|  +Q       H         Q     +Q       H         Q
|----------16------------|-------------------------|
|-(16)---------------14--|-(14)-----16--------17---|
|----------13------------|-------------------------|
|-(13)---------------11--|-(11)-----13--------14---|
|------------------------|-------------------------|
|------------------------|-------------------------|
   +Q       H         Q     +Q       H         Q


    |-3--|     |-3-|         |-3--|     |-3-|
    E  E E  q  E E E  q      E  E E  q  E E E  q
|------------------------|------------------------|
|------------------------|------------------------|
|------------------------|------------------------|
|------------------------|------------------------|
|---4--4-4--4--4-4-4--4--|---4--4-4--4--4-4-4--4--|
|------------------------|------------------------|
|
|  +Q       H         Q     +Q       H         Q
|------------------------|----------17------------|
|-(17)-----16--------17--|-(17)---------------16--|
|------------------------|----------14------------|
|-(14)-----13--------14--|-(14)---------------13--|
|------------------------|------------------------|
|------------------------|------------------------|
   +Q       H         Q     +Q       H         Q


 1.
    |-3--|     |-3-|       |-3-|    |-3-|
    E  E E  q  E E E  q    E E E q  E E E q
|------------------------|----------------------||
|------------------------|---------------------o||
|------------------------|----------------------||
|------------------------|----------------------||
|---4--4-4--4--4-4-4--4--|-4-4-4-4--4-4-4-4----o||
|------------------------|----------------------||
|
|  +Q       H         q    W
|----------16------------|----------------------||
|-(16)---------------14--|---------------------o||
|----------13------------|----------------------||
|-(13)---------------11--|----------------------||
|------------------------|---------------------o||
|------------------------|----------------------||
   +Q       H         q    W


  2.
                                                            D.S. al Coda
   |-3-|     |-3-|         |-3--|       |--3--|        |-3-|    |-3-|
   E E E  q  E E E  q      E  E E  q    E   E E q      E E E q  E E E q   3x
|----------------------|---------------------------||---------------------||
|----------------------|---------------------------||o-------------------o||
|----------------------|---------------------------||---------------------||
|----------------------|---------------------------||---------------------||
|--4-4-4--4--4-4-4--4--|---4--4-4--4----4---4-4-4--||o-4-4-4-4--4-4-4-4--o||
|----------------------|---------------------------||---------------------||
|
|  Q      H         Q     +Q       Q   +Q       Q      W                  3x
|--------16------------|---------------------------||---------------------||
|-16---------------16--|-(16)-----16--(16)\--------||o-------------------o||
|--------13------------|---------------------------||---------------------||
|-13---------------13--|-(13)-----13--(13)\--------||---------------------||
|----------------------|---------------------------||o-------------------o||
|----------------------|---------------------------||---------------------||
   Q      H         Q     +Q       Q   +Q       Q      W


  &
  |-3-|    |-3-|      |-3--|    |-3-|      |-3-|        |-3--|
  E E E q  E E E q    E  E E q  E E E q    E E E   q    E  E E     q
|-------------------|--------------------|-----------------------------|
|-------------------|--------------------|-----------------------------|
|-------------------|--------------------|-----------------------------|
|-------------------|--------------------|-----------------------------|
|-4-4-4-4--4-4-4-4--|-4--4-4-4--4-4-4-4--|-4-4-4---4----4--4-4-----4---|
|-------------------|--------------------|-----------------------------|
|
| Gtrs II, III
| W                   H.              Q    Q       Q   +E.      S  q
|-------------------|-----------------9--|-7-----/16--(16)-------------|
|-------------------|--------------------|---------------------12-14---|
|-------------------|-----------------6--|-4-----/13--(13)-------------|
|-------------------|--------------------|----------------------9-11---|
|-------------------|--------------------|-----------------------------|
|-------------------|--------------------|-----------------------------|
  W                   H.              Q    Q       Q   +E.      S  q


                                     Gtrs II, III
  |-3-|    |-3-|      |-3-|    |-3-|
  E E E q  E E E q    E E E q  E E E Q    +W           +W
|-------------------|-------------------|------------|--------|
|-------------------|-------------------|------------|--------|
|-------------------|----------------6--|-(6)--------|-(6)----|
|-------------------|----------------6--|-(6)--------|-(6)----|
|-4-4-4-4--4-4-4-4--|-4-4-4-4--4-4-4-4--|-(4)--------|-(4)----|
|-------------------|-------------------|------------|--------|


  Wx6
|--------*|
|--------*|
|--------*|
|--------*|
|--------*|
|--------*|



Duration Legend
---------------
W - whole; H - half; Q - quarter; E - 8th; S - 16th; T - 32nd; X - 64th; a - acciaccatura
+ - note tied to previous; . - note dotted; .. - note double dotted
Uncapitalized letters represent notes that are staccato (1/2 duration)
Irregular groupings are notated above the duration line
Duration letters will always appear directly above the note/fret number it represents the
duration for.  Duration letters with no fret number below them represent rests.  Multi-
bar rests are notated in the form Wxn, where n is the number of bars to rest for.  Low
melody durations appear below the staff

Tablature Legend
----------------
 h   - hammer-on
 p   - pull-off
 b   - bend
 pb  - pre-bend
 r   - bend release (if no number after the r, then release immediately)
 /\  - slide into or out of (from/to "nowhere")
 s   - legato slide
 S   - shift slide
 - natural harmonic
[n]  - artificial harmonic
n(n) - tapped harmonic
 ~   - vibrato
 tr  - trill
 T   - tap
 TP  - trem. picking
 PM  - palm muting
\n/  - tremolo bar dip; n = amount to dip
 \n  - tremolo bar down
 n/  - tremolo bar up
/n\  - tremolo bar inverted dip
 =   - hold bend; also acts as connecting device for hammers/pulls
 <> - volume swell (louder/softer)
 x   - on rhythm slash represents muted slash
 o   - on rhythm slash represents single note slash

Misc Legend
-----------
 |  - bar
||  - double bar
||o - repeat start
o|| - repeat end
*|  - double bar (ending)
 :  - bar (freetime)
 $  - Segno
 &  - Coda
Tempo markers -  = BPM(8/16=s8/s16), where s8 = swing 8ths, s16 = swing 16ths

Добавлено: 03.04.2012
Другие материалы по этой песне:

Страница создана 08.03.2012
http://primanota.ru/crimson-glory/march-to-glory-chords.htm
Привет, Гость.
Предлагаем пройти революционный курс по гитаре.
Подарок от PrimaNota.Ru, забирай!