PrimaNota.ru - самый крупный в мире бесплатный архив песенных текстов, аккордов, табулатур и нот


Crimson Glory - Lonely - текст песни, таба, видео

Регистрация Запомнить меня
Войти через:  Facebook Google Twitter Vk Yandex Mail.ru

Crimson Glory - Lonely - текст песни, таба, видео

Печатать
Просмотров: 243
Band: Crimson Glory
Song: Lonely
Album: Trancendence

Guitar I
  Am9                             Fmaj7           Em7
|---------------|------------0--|-------0-------|-------0--------|
|-----1-0----1--|-1---1-0-------|-----1---1-----|-----3---3------|
|---2-----------|---2------2----|---2-------2---|---0-------0----|
|---------------|---------------|-3-----------3-|-2-----------2--|
|-0-------------|---------------|---------------|----------------|
|---------------|---------------|---------------|----------------|

  Am9                                             Fmaj7
|---------------|---------------|---------------|----------------|
|---------------|---------------|---------------|----------------|
|---------------|---------------|---------------|----------------|
|---------------|---------------|---------------|----------------|
|---------------|---------------|---------------|----------------|
|---------------|---------------|---------------|----------------|

  G6                                              Am9
|-------0--3-0--|-0-------------|---------------|----------------|
|---0-3---------|---------------|-----1-0----1--|-----1-0----0---|
|-0-------------|---------------|---2------2----|---2------2-----|
|---------------|---------------|---------------|----------------|
|---------------|---------------|-0-------------|-0--------------|
|---------------|---------------|---------------|----------------|

  Fmaj7           Em7               Am9
|-------0-------|-------0---------|---------------|------------0---|
|-----1---1-----|-----3---3-------|-----1-0----1--|-----1-0--------|
|---2-------2---|---0-------0---0-|---2------2----|---2------2-----|
|-3-----------3-|-2-----------2---|---------------|----------------|
|---------------|-----------------|-0-------------|-0--------------|
|---------------|-----------------|---------------|----------------|


Guitar II:
|-----0------0--|-----0------0--|-------5-------|-------3--------|
|---1---3-------|---1---3-------|-----6---6-----|-----3---3------|
|---------------|-2-------------|---5-------5---|---4-------4----|
|---------------|---------------|-7-----------7-|-5-----------5--|
|-0-------------|---------------|---------------|----------------|
|---------------|---------------|---------------|----------------|

|-----0------0--|-----3-1----0--|-------5-------|-------7--10----|
|---1---3-------|---1-----------|-----6---6-----|-----8-------8--|
|---------------|---------------|---5-------5---|---7------------|
|---------------|---------------|-7-----------7-|-9--------------|
|-0-------------|-0-------------|---------------|----------------|
|---------------|---------------|---------------|----------------|

|----------5----|---------------|---------------|----------------|
|----------5----|---------------|---------------|----------------|
|----------5----|---------------|---------------|----------------|
|---------------|---------------|---------------|----------------|
|---------------|---------------|---------------|----------------|
|---------------|---------------|---------------|----------------|
Добавлено: 24.07.2012
Другие материалы по этой песне:

Страница создана 24.07.2012
http://primanota.ru/crimson-glory/lonely-chords.htm
Привет, Гость.
Предлагаем пройти революционный курс по гитаре.
Подарок от PrimaNota.Ru, забирай!