PrimaNota.ru - самый крупный в мире бесплатный архив песенных текстов, аккордов, табулатур и нот


Crime In Stereo - Third Atlantic - бас-таба, видео

Регистрация Запомнить меня
Войти через:  Facebook Google Twitter Vk Yandex Mail.ru

Crime In Stereo - Third Atlantic - бас-таба, видео

Печатать
Просмотров: 134
Уроки эстрадного вокала в Санкт-Петербурге
Crime In Stereo
Third Atlantic
Standard Tuning

Comments, suggestions, constructive criticism are welcome.  Thanks and enjoy!
:)

Slide down = \

Part A – 0:27 – (x2)
G|--------------------------------------------|
D|--------------------------------------------|
A|--13-13-333-13-13-333-13-1------13-1--------|
D|---------------------------4444------4444---|

Part B – 0:39 – (Play each part x1)
G|------------------------------------------|
D|------------------------------------------|
A|--13-13-333333-3333-3331-1111-1111-1111---|
D|------------------------------------------|


G|-----------------------------------------|
D|-----------------------------------------|
A|--13-13-333333-3333-3331-----------------|
D|-------------------------444-4444-4444---|

Part C – 0:51 – (x1)
G|----------|
D|----------|
A|--13-13---|
D|----------|

Part A – 1:03 – (x2) 

Part B – 1:15 – (Play each part x1)

Part D – 1:27 – (x3)
G|-----------------------|
D|-----------------------|
A|--13-13-333-3331-------|
D|-----------------444---|

Part E – 1:35 – (x1)
G|-----------|
D|-----------|
A|------11---|
D|--4\-------|

Part D – 1:38 – (x3)

Part F – 1:48 – (x1)
G|-----------------------------|
D|-----------------------------|
A|---------------------13-13---|
D|--444-4444-4444-4444---------|

Part D – 2:26 – (x3)

Part F – 2:36 – (x1)
Добавлено: 08.06.2012
Другие материалы по этой песне:
  • Аккорды и текст

Страница создана 08.06.2012
http://primanota.ru/crime-in-stereo/third-atlantic-chords.htm
Привет, Гость.
Предлагаем пройти революционный курс по гитаре.
Подарок от PrimaNota.Ru, забирай!