PrimaNota.ru - самый крупный в мире бесплатный архив песенных текстов, аккордов, табулатур и нот


Crime In Stereo - Slow Math - текст песни, таба, видео

Регистрация Запомнить меня
Войти через:  Facebook Google Twitter Vk Yandex Mail.ru

Crime In Stereo - Slow Math - текст песни, таба, видео

Печатать
Просмотров: 131
Artist: Crime in Stereo
Song: Slow Math
Album: The Troubled Stateside


Tuning: Standard (EADGBe)


h  -  Hammer-on
p  -  Pull-off
/  -  Slide
*  -  Harmonic
b  -  Bend
br -  Bend/Release

INTRO
Guitar 1:
e | -------------14h15p14-----------14----------14----14-|
B | -------15-------------15-----------15-15-15----15----|
G | -14h16----16-----------------------------------------|
D | ---------------------------x3------------------------|
A | -----------------------------------------------------|  x2
E | -----------------------------------------------------|

e | -14h15h14----14---------------------------------------------------|
B | ----------15-----15-------15-15-15-15-15-15-15--15/19-19-17-15-14-|
G | ------------------------------------------------------------------|
D | ----------------------x3------------------------------------------|
A | ------------------------------------------------------------------|  x1
E | ------------------------------------------------------------------|

e | -14h15h14----14-------------------------------14(sustain)-----|
B | ----------15-----15------------15----15----15-----------------|
G | ----------------------------16----16----16--------------------|
D | ----------------------x3--------------------------------------|
A | --------------------------------------------------------------|  x1
E | --------------------------------------------------------------|


Guitar 2:
e | --------------------------------------|
B | --------------------------------------|
G | -----------------------7-7-7----------|
D | -9-9-9-9-9-7/9-9-9-9-9-7-7-7--5-------|
A | -9-9-9-9-9-7/9-9-9-9-9-5-5-5--5-(x12)-|
E | -7-7-7-7-7-5/9-7-7-7-7--------3-------|


e | ----------------------------------|
B | ----------------------------------|
G | --------------------------7-------|
D | -9-9-9-9-9-7/9-9-9-9-9-9--7-(x12)-|
A | -9-9-9-9-9-7/9-9-9-9-9-9--5-------|
E | -7-7-7-7-7-5/7-7-7-7-7-7----------|


e | --------------------------------------|
B | --------------------------------------|
G | -----------------------7-7-7----------|
D | -9-9-9-9-9-7/9-9-9-9-9-7-7-7--5-------|
A | -9-9-9-9-9-7/9-9-9-9-9-5-5-5--5-(x12)-|
E | -7-7-7-7-7-5/9-7-7-7-7--------3-------|


e | ----------------------------------|
B | ----------------------------------|
G | --------------------------7-------|
D | -9-9-9-9-9-7/9-9-9-9-9-9--7-(x12)-|
A | -9-9-9-9-9-7/9-9-9-9-9-9--5-------|
E | -7-7-7-7-7-5/7-7-7-7-7-7----------|

VERSE
Guitars 1 and 2:
e | ---------------------------------------------|
B | ---------------------------------------------|
G | -4--------------------------------7----------|
D | -4(sustain)-5----------7----------7(sustain)-|
A | -2----------5(sustain)-7(sustain)-5----------|  x2
E | ------------3----------5---------------------|

CHORUS
Guitars 1 and 2:
e | ----------------------------------------------------------------|
B | ----------------------------------------------------------------|
G | -9-------5---------------7---------9-------5--------------------|
D | -9-(x5)--5-(x5)--5-------7-(x5)----9-(x5)--5-(x5)--5------------|
A | -7-------3-------5-(x5)--5---------7-------3-------5-(x8)-------|  x2
E | -----------------3---------------------------------3------3-2-0-|

REPEAT INTRO

REPEAT VERSE
(Toward the end of the verse, lead guitar plays this)
e | -7*----|
B | ----7*-|
G | -------|
D | -------|
A | -------|
E | -------|

REPEAT CHORUS

SOLO:
Guitar 1:
e | -17br-17br-17br-17br-15-14-15p14--------------|
B | ----------------------------------15----15h17-|
G | -------------------------------------16-------|
D | ----------------------------------------------|
A | ----------------------------------------------|
E | ----------------------------------------------|

e | ----------------------------------------------|
B | ----------------------------------------------|
G | -7-4-7/9-6-2-6-4-4-4-4-4-4-4-4-4-6-6-7-7-9-11-|
D | ----------------------------------------------|
A | ----------------------------------------------|
E | ----------------------------------------------|

e | ----10-10h12-15-14----12-12br-12br-12br-10----9h10-|
B | -10----------------15----------------------10------|
G | ---------------------------------------------------|
D | ---------------------------------------------------|
A | ---------------------------------------------------|
E | ---------------------------------------------------|

e | ----10-10h1210----10----10----10h1210----/17-15-14-|
B | -10------------10----10----10---------10-----------|
G | ---------------------------------------------------|
D | ---------------------------------------------------|
A | ---------------------------------------------------|
E | ---------------------------------------------------|


Guitar 2:
e | -------------------------------------------|
B | -------------------------------------------|
G | -4-----------------------------------------|
D | -4-(x12)-5--------9------7------5----------|
A | -2-------5-(x12)--9-(x5)-7-(x5)-5-(x10-----|  x2
E | ---------3--------7------5------3----------|

REPEAT CHORUS
(Throughout the last chorus, lead guitar plays this)
e | ----------------------------------------------------------|
B | -15-------15-------17-------15----------------------------|
G | ----14-------14-------14-------14------14-12-11-12-11-9-7-|
D | -------16-------16-------16-------16----------------------|
A | ----------------------------------------------------------|
E | ----------------------------------------------------------|

e | -------------------------------------------------------------|
B | -15-------15-------17-------15-------------------------------|
G | ----14-------14-------14-------14------14-12-11-9-11-12/14/7-|
D | -------16-------16-------16-------16-------------------------|
A | -------------------------------------------------------------|
E | -------------------------------------------------------------|

END WITH
e | ------------------------------------|
B | ------------------------------------|
G | ------------------------------------|
D | -9-----------7-----------5----------|
A | -9(sustain)--7(sustain)--5(sustain)-|
E | -7-----------5-----------3----------|

That should be just about everything... Enjoy!

Tabbed by: Mike Paulshock
Добавлено: 24.03.2012
Другие материалы по этой песне:
  • Аккорды и текст

Страница создана 24.03.2012
http://primanota.ru/crime-in-stereo/slow-math-chords.htm
Привет, Гость.
Предлагаем пройти революционный курс по гитаре.
Подарок от PrimaNota.Ru, забирай!