PrimaNota.ru - самый крупный в мире бесплатный архив песенных текстов, аккордов, табулатур и нот


Crepuscularia - Listopad - бас-таба

Регистрация Запомнить меня
Войти через:  Facebook Google Twitter Vk Yandex Mail.ru

Crepuscularia - Listopad - бас-таба

Печатать
Просмотров: 77
Tricky song, worked it out by ear as best I could. Riff C isn't right but it fits I guess.

Here's my playthrough if you need help: https://fbcdn-video-l-a.akamaihd.net/hvideo-ak-xpf1/v/t42.1790-2/11050003_429070510603846_21223607_n.mp4?efg=eyJxZSI6ImZiY2RuX3ZpZGVvX3JhdGVsaW1pdF9yb2xsb3V0Mix2X3JvbGxvdXQifQ%3D%3D&oh=d365aa2d63c02a769e5c99c08fcd467b&oe=5514A6B9&__gda__=1427412147_9b3c5b223e41076d956b06e8d2ced5bd

E standard tuning

Riff A (x12)
G|-----------------------------|
D|----9-5~~5-4-----------------|
A|-------------5~~4/9~~9-7-7p5-|
E|-7~~-------------------------|

Riff B (x8)
G|--------------------------------|
D|-------------------------5-4----|
A|---------------5~~5-5-7~~----54-|
E|-0-00-2-3~~3-3------------------|

Repeat Riff A (x8)

Riff C (repeat until fade)
G|-------------------------|
D|-9-----5-----5-55--4-----|
A|-----5-----5-----4---5-4-|
E|---7-----7---------------|
Добавлено: 09.10.2015
Другие материалы по этой песне:
  • Аккорды и текст

Страница создана 09.10.2015
http://primanota.ru/crepuscularia/listopad-chords.htm
Привет, Гость.
Предлагаем пройти революционный курс по гитаре.
Подарок от PrimaNota.Ru, забирай!