PrimaNota.ru - самый крупный в мире бесплатный архив песенных текстов, аккордов, табулатур и нот


Crematory - Temple Of Love - текст песни, бас-таба, видео

Регистрация Запомнить меня
Войти через:  Facebook Google Twitter Vk Yandex Mail.ru

Crematory - Temple Of Love - текст песни, бас-таба, видео

Печатать
Просмотров: 230
Авторы музыки: Andrew Eldritch
Авторы текста: Andrew Eldritch
G||------|----------------------|----------------------|
D||------|----------------------|----------------------|
A||------|----------------------|----------------------|
E||------|----0----0----3----3--|----5----5----5----5--|


                                                2x                            
|-----------------------|-----------------------||---------------------------|
|*----------------------|----------------------*||*--------------------------|
|*----------------------|----------------------*||*--------------------------|
|-----0----0----3----3--|----5----5----5----5---||---0----0-0-0-3---3--3--3--|


                                                        
------------------------||-----------------------------|
-----------------------*||*----------------------------|
--0--------0--2--3--5--*||*----------------------------|
------------------------||---0--0-0--0-0--3--3-3--3-3--|


                                 2x                             
---------------------------------||----------------------------|
--------------------------------*||----------------------------|
--0--0-0--0-0-0-0-0-2-2-3-3-5-5-*||----------------------------|
---------------------------------||--0--0-0--0-0--3--3-3--3-3--|


                                                                
--------------------------------||-----------------------------|
--------------------------------||*----------------------------|
--0--0-0--0-0-0-0-0-2-2-3-3-5-5-||*----------------------------|
--------------------------------||---0--0-0--0-0--3--3-3--3-3--|


                               3x                           
-------------------------------||--------------------------|
------------------------------*||--2-----------------------|
--0--0-0--0-0-0-0--0-0--0-0-0-*||-----5--4--2--5--4--2--0--|
-------------------------------||--------------------------|


                                                      
--------------------------|--------------------------|
--------------------------|--2-----------------------|
--0-0-0---0---0---0---0-0-|-----5--4--2--5--4--2--0--|
--------------------------|--------------------------|


                                                      
--------------------------|--------------------------|
--------------------------|--2-----------------------|
--0-0-0---0---0---0---0-0-|-----5--4--2--5--4--2--0--|
--------------------------|--------------------------|


                                                      
--------------------------|--------------------------|
--------------------------|--2-----------------------|
--0-0-0---0---0---0---0-0-|-----5--4--2--5--4--2--0--|
--------------------------|--------------------------|


                                                              2x
|-----------------------------|-------------------------------||
|*----------------------------|------------------------------*||
|*----------------------------|--0--0-0--0-0-0-0--0-0--0-0-0-*||
|---0--0-0--0-0--3--3-3--3-3--|-------------------------------||


                                                            
----------------------------|------------------------------|
----------------------------|------------------------------|
----------------------------|--0--0-0--0-0-0-0--0-0--0-0-0-|
--0--0-0--0-0--3--3-3--3-3--|------------------------------|


                                                              2x
|-----------------------------|-------------------------------||
|*----------------------------|------------------------------*||
|*----------------------------|--0--0-0--0-0-0-0--0-0--0-0-0-*||
|---0--0-0--0-0--3--3-3--3-3--|-------------------------------||


                                                            
----------------------------|------------------------------|
----------------------------|------------------------------|
----------------------------|--0--0-0--0-0-0-0--0-0--0-0-0-|
--0--0-0--0-0--3--3-3--3-3--|------------------------------|


                                                        2x
|---------------------------|---------------------------||
|*--------------------------|--2-----------------------*||
|*--0-0-0---0---0---0---0-0-|-----5--4--2--5--4--2--0--*||
|---------------------------|---------------------------||


                                                                          
--------------------------|--------------------------|-------------------|
--------------------------|--2-----------------------|-------------------|
--0-0-0---0---0---0---0-0-|-----5--4--2--5--4--2--0--|-------------------|
--------------------------|--------------------------|--0----------------|


                                                               
-------------------|-------------------|----------------------|
-------------------|-------------------|----------------------|
-------------------|--0----------------|--0----2----3----5----|
--3----------------|-------------------|----------------------|


                                                            
-------------------|-------------------|-------------------|
-------------------|-------------------|-------------------|
-------------------|-------------------|--0----------------|
--0----------------|--3----------------|-------------------|


                                                               
----------------------|-------------------|-------------------|
--5----4----2----0----|-------------------|-------------------|
----------------------|-------------------|-------------------|
----------------------|--0----------------|--3----------------|


                                                               
-------------------|----------------------|-------------------|
-------------------|----------------------|-------------------|
--0----------------|--0----2----3----5----|-------------------|
-------------------|----------------------|--0----------------|


                                                               
-------------------|-------------------|----------------------|
-------------------|-------------------|--5----4----2----0----|
-------------------|--0----------------|----------------------|
--3----------------|-------------------|----------------------|


                                                            
-------------------|-------------------|-------------------|
-------------------|-------------------|-------------------|
-------------------|-------------------|--0----------------|
--0----------------|--3----------------|-------------------|


                                                      
----------------------||-----------------------------|
----------------------||*----------------------------|
--0----2----3----5----||*----------------------------|
----------------------||---0--0-0--0-0--3--3-3--3-3--|


                               2x                             
-------------------------------||----------------------------|
------------------------------*||----------------------------|
--0--0-0--0-0-0-0--0-0--0-0-0-*||----------------------------|
-------------------------------||--0--0-0--0-0--3--3-3--3-3--|


                                                            
------------------------------||---------------------------|
------------------------------||*--------------------------|
--0--0-0--0-0-0-0--0-0--0-0-0-||*--0-0-0---0---0---0---0-0-|
------------------------------||---------------------------|


                           2x                           
---------------------------||--------------------------|
--2-----------------------*||--------------------------|
-----5--4--2--5--4--2--0--*||--0-0-0---0---0---0---0-0-|
---------------------------||--------------------------|


                                      
--------------------------|----|----||
--2-----------------------|----|----||
-----5--4--2--5--4--2--0--|----|----||
--------------------------|----|----||
Добавлено: 27.03.2012
Другие материалы по этой песне:

Страница создана 27.03.2012
http://primanota.ru/crematory/temple-of-love-chords.htm
Привет, Гость.
Предлагаем пройти революционный курс по гитаре.
Подарок от PrimaNota.Ru, забирай!