PrimaNota.ru - самый крупный в мире бесплатный архив песенных текстов, аккордов, табулатур и нот


Creeper Lagoon - Wrecking Ball - текст песни, таба, видео

Регистрация Запомнить меня
Войти через:  Facebook Google Twitter Vk Yandex Mail.ru

Creeper Lagoon - Wrecking Ball - текст песни, таба, видео

Печатать
Просмотров: 182
Уроки эстрадного вокала в Санкт-Петербурге
This tab is completely my own work...I don't think anyone else would
want to take credit for it.  :)
 
Artist: Creeper Lagoon 
Song: Wrecking Ball
Album: Take back the Universe and give me yesterday
Transcriber: Nathan W. ( mailto:madtabber@hotmail.com>madtabber@hotmail.com)
 
Some general notes:
I'm not so sure how accurate this tab is, but I can't find
tabs for this band anywhere.  I have a few others I'll submit
sooner or later. (later)
 
   Wrecking Ball
 
 First Intro-notes.  This part is for 2 acoustic guitars. 
I tried to tab it for just one;
 
e--------------------------------
b-------------------------------- 
g-9-9-9--9--9--9---------------    repeat 1x
a-------- 7--6-------------------
d-7-7-9--------7-----------------
E--------------------------------
 
Second Intro-notes---same as first. Only this is electric:
 
e---------------------------------
b---------------5------------- 2------
g-------  2-2h4----------- 2h4-------
a-2--2h4-2-----2-2h4-6-2-------2-- repeat 2x  let the low e ring
d-2------------ 2---------------   2--
E-0------------ 0---------------    0--
 
While the low e rings, the bass plays something... and there
is an acoustic guitar playing something as well.
I fake it with:
A5 B5 C#5  then play an Octave high E and slide down to an octave B
for the latter half of the verse
 
Chorus:
 
"Everyday, I'm away, stumbling for what to say"
e-----------------
b----9------9---9-
g---9------9---9--
a--9------7---9---
d-----------------
E-----------------
 
Chorus: High E, C#minor A A5 F#
During the chorus either a guitar or bass plays in the background:
 
e---------------------
b---------------------
g-------2-1---------2-4-
a-2-2-4----2-2-2-4----
d---------------------
E---------------------
 

Then 2nd Intro once
 
Bridge is......
 
e--------------------
b--------------------
g--------------------
a--------------------
d---7--5---4---5-----
E--0--0--0---0-------
 
That is it!  DO NOT hold me to this...if you know
the right version please e-mail.
     
Добавлено: 15.09.2013
Вам также может быть интересно:
Другие материалы по этой песне:
  • Аккорды и текст

Страница создана 13.04.2012
http://primanota.ru/creeper-lagoon/wrecking-ball-chords.htm
Привет, Гость.
Предлагаем пройти революционный курс по гитаре.
Подарок от PrimaNota.Ru, забирай!