PrimaNota.ru - самый крупный в мире бесплатный архив песенных текстов, аккордов, табулатур и нот


Creedence Clearwater Revival - Proud Mary Standard - бас-таба, видео

Регистрация Запомнить меня
Войти через:  Facebook Google Twitter Vk Yandex Mail.ru

Creedence Clearwater Revival - Proud Mary Standard - бас-таба, видео

Печатать
Просмотров: 134
Proud Mary
Creedence Clearwater Revival
TablEdited by Jan Bjorklund
Tuning : E A D G 	Time Signature: 4/4

 tempo 118       |       |        |       |       |       |        
|--------------------------------|--------------------------------|
|--------------------------------|--------------------------------|
|3---3---------------------------|3---3---------------------------|
|------------5-------5---5---0---|------------5-------5---5---0---|

 |       |       |       |        |       |       |       |        
|--------------------------------|--------------------------------|
|--------------------5-------3---|----3---3-------3---------------|
|3---3---------------------------|------------5-----------5-------|
|------------5-------------------|--------------------------------|

 |       |       |       |        |       |       |       |        
|--------------------------------|--------------------------------|
|--------------------------------|--------------------------------|
|5-----------5---5---5-----------|5-----------5---5---5-----------|
|--------------------------------|----------------------------5---|

 'Left a good job|in the |        city    |       |       |        
|--------------------------------|--------------------------------|
|--------------------------------|--------------------------------|
|5-----------5---5---5---5-------|5-----------5---5---5---5-------|
|--------------------------------|--------------------------------|

 workin' for the man every        night and day   |       |        
|--------------------------------|--------------------------------|
|--------------------------------|--------------------------------|
|5-----------5---5---5---5-------|5-----------5---5---5-----------|
|--------------------------------|----------------------------5---|

 and I never lost|a      |        minute of speed when    |        
|--------------------------------|--------------------------------|
|--------------------------------|--------------------------------|
|5-----------5---5---5---5-------|5-----------5---5---5---5-------|
|--------------------------------|--------------------------------|

 worryin'|'bout the way things    |     might have|been   |        
|--------------------------------|--------------------------------|
|--------------------------------|------------4-------5---5---6---|
|5-----------5---5---5---5-------|5---5---------------------------|
|--------------------------------|--------------------------------|

 Big wheel keep on       |        burning |       |       |        
|--------------------------------|--------------------------------|
|7-----------7-------------------|7-----------7-------------------|
|----------------7---------------|----------------7---7---7-------|
|--------------------------------|--------------------------------|

 Proud Mary keep on      |        goin'   |       |       |        
|--------------------------------|--------------------------------|
|9-----------9-------------------|9---9-------9-------------------|
|----------------9---9---9-------|----------------9---9-------9---|
|--------------------------------|--------------------------------|

 rollin' |       |       |        rollin' |       |       |        
|--------------------------------|--------------------------------|
|--------------------------------|--------------------------------|
|5-----------5---5---5-------5---|5---5-------5---5---5-----------|
|--------------------------------|--------------------------------|

 rollin' on the river    |        |       |       |       |        
|--------------------------------|--------------------------------|
|--------------------------------|------------4-------5---5---7---|
|5---5-------5---5---5-----------|5---5---------------------------|
|--------------------------------|--------------------------------|

 |       |       |       |        |       |       |       |        
|--------------------------------|--------------------------------|
|--------------------------------|--------------------------------|
|5-----------5---5---5-----------|5-----------5---5---5---5-------|
|--------------------------------|--------------------------------|

 |       |       |       |        |       |       |       |        
|--------------------------------|--------------------------------|
|--------------------------------|--------------------------------|
|5-----------5---5---5---5-------|5-----------5---5---5---5-------|
|--------------------------------|--------------------------------|

 |       |       |       |        |       |       |       |        
|--------------------------------|--------------------------------|
|--------------------------------|--------------------------------|
|5-----------5---5---5---5-------|5-----------5---5---5-----------|
|--------------------------------|--------------------------------|

 |       |       |       |        |       |       |       |        
|--------------------------------|--------------------------------|
|--------------------------------|------------4-------5---5---7---|
|5-----------5---5---5---5-------|5---5---------------------------|
|--------------------------------|--------------------------------|

 |       |       |       |        |       |       |       |        
|--------------------------------|--------------------------------|
|7-----------7-------------------|7-----------7-----------7-------|
|----------------7---7-------7---|----------------7---7-------7---|
|--------------------------------|--------------------------------|

 |       |       |       |        |       |       |       |        
|--------------------------------|--------------------------------|
|9-----------9-------------------|9---9-----------9---9-----------|
|----------------9---9-------9---|------------9---------------9---|
|--------------------------------|--------------------------------|

 |       |       |       |        |       |       |       |        
|--------------------------------|--------------------------------|
|--------------------------------|--------------------------------|
|5-----------5---5---5-----------|5---5-------5---5---5-----------|
|--------------------------------|--------------------------------|

 |       |       |       |        |       |       |       |        
|--------------------------------|--------------------------------|
|--------------------------------|--------------------------------|
|5---5-------5---5---5-----------|5---5-------5---5---5-------5---|
|--------------------------------|--------------------------------|

 |       |       |       |        |       |       |       |        
|--------------------------------|--------------------------------|
|--------------------------------|--------------------------------|
|3---3---------------------------|3---3---------------------------|
|------------5-------5---5---0---|------------5-------5---5---0---|

 |       |       |       |        |       |       |       |        
|--------------------------------|--------------------------------|
|--------------------5-------3---|----3---3-------3---------------|
|3---3---------------------------|------------5-----------5-------|
|------------5-------------------|--------------------------------|

 |       |       |       |        |       |       |       |        
|--------------------------------|--------------------------------|
|--------------------------------|--------------------------------|
|5-----------5---5---5-----------|5---5-------5---5---5---5-------|
|--------------------------------|----------------------------5---|

 |       |       |       |        |       |       |       |        
|--------------------------------|--------------------------------|
|--------------------------------|--------------------------------|
|5-----------5---5---5-----------|5-----------5---5---5---5-------|
|----------------------------5---|--------------------------------|


Created with TablEdit http://www.tabledit.com/


     
Добавлено: 18.07.2013
Другие материалы по этой песне:
  • Аккорды и текст

Страница создана 18.07.2013
http://primanota.ru/creedence-clearwater-revival/proud-mary-standard-chords.htm
Привет, Гость.
Предлагаем пройти революционный курс по гитаре.
Подарок от PrimaNota.Ru, забирай!