PrimaNota.ru - самый крупный в мире бесплатный архив песенных текстов, аккордов, табулатур и нот


Creedence Clearwater Revival - Penthouse Pauper - текст песни, таба, бас-таба, видео

Регистрация Запомнить меня
Войти через:  Facebook Google Twitter Vk Yandex Mail.ru

Creedence Clearwater Revival - Penthouse Pauper - текст песни, таба, бас-таба, видео

Печатать
Просмотров: 225
Авторы музыки: John Fogerty

Hey, this is like my fifth ever so cut me a little bit of slack. This is a jammin' song 
there were no tabs for it so i took the liberty of tabbing it myself. It's probably 
85% correct. Not perfect but the basis of the song.

Here is the intro.

e|------------------------------------|
B|------------------------------------|
G|--3-3~--/5-5~---7-7~----------------|
D|--3-3~--/5-5~---7-7~----------------|
A|--1-1~--/3-5~---5-5~----------------|
E|------------------------2--3--4--5--|

    D5                     G5                  D5
Now if i were a brick layer, i wouldn't build just anything
   G5                                       D5
If i were a ball player, i wouldn't play no second string
   Bb                       C5                  D5
If i were some jewelery baby, lord I'd have to be a diamond ring
   D5               G5                D5
If i were a secret, lord i never would be told
    G5                          D5
If i were a jug of wine, lord my flavor would be opld
  Bb                    C5                   D5
I could be almost anything, but it got to be twenty-four carrot solid gold.

( Continue that pattern for the song)
I am going to put the guitar fill according to the number. For example, the first riff 
the section numbered 1, would be for the first line. 2 for the second, and so forth.

Intro
e|-----------------------13-10--------------------10-|
B|-----------------------10----13--13b---------------|
G|--/15-15~~---/17-17~------------------12b-r-10-----|
D|---------------------------------------------------|
A|---------------------------------------------------|
E|---------------------------------------------------|


  1
e|---------------------10------10------10-------------10-|
B|--12----12-------13b-----13b-----13b-------------------|
G|--12b-r-12--------------------------------12b-r-10-----|
D|-------------------------------------------------------|
A|-------------------------------------------------------|
E|-------------------------------------------------------|


  2
e|---------------15br-15r-15r-15r-p13----13h15p13----13-----|
B|--12----12--------------------------15----------15-----15-|
G|--12b-r-12------------------------------------------------|
D|----------------------------------------------------------|
A|----------------------------------------------------------|
E|----------------------------------------------------------|


  3
e|---------------------10--10------10-10----------------10-|
B|--12------12-----13b---------13b-------------------------|
G|--12b-12b-12----------------------------12b-r-p10--------|
D|---------------------------------------------------12----|
A|---------------------------------------------------------|
E|---------------------------------------------------------|


  4                 (the bend should be between 14 and 15)
e|-----------------------13b-b-b-b-b-b-bbbb--r-p10-----------------------|
B|--10-10-10-10-/12--------------------------------13b-------------------|
G|--10-10-10-10-/12-------------------------------------12b-r-p10----10b-|
D|----------------------------------------------------------------12-----|
A|-----------------------------------------------------------------------|
E|-----------------------------------------------------------------------|


  5
e|----------------15br-br-15br-p13----13-15p13-15b--13-15p13----------|
B|--12----12-----------------------15------------------------15p13h15-|
G|--12b-r-12----------------------------------------------------------|
D|--------------------------------------------------------------------|
A|--------------------------------------------------------------------|
E|--------------------------------------------------------------------|


   6
e|-------------------10------10----------10---------------|  For this one, the 3rd bend
B|--12----12------13b----13b----13b(p10)-----|  on the 13-| sounds good if you
G|--12b-r-12----------------------------------------------|  just  bend it and go to the
D|-------------------------------------------|  10--------|th on the 1st string or
A|--------------------------------------------------------|  if you pull off and then go
E|--------------------------------------------------------|  to the tenth.


  7  (little fill)
e|----------------|
B|----------------|
G|------------7---|
D|--5h7--5--------|
A|----------8-----|
E|----------------|


 Small Solo(when there is more than one b, bend it that many times)
e|--13-10-----------13-10--------------------------------------------------|
B|--------10-13b-b--------10-13b-b-----------------------------------------|
G|----------------------------------12b-b-b-b-b-b-b-b-br-p10----10-12--10b-|
D|-----------------------------------------------------------12------------|
A|-------------------------------------------------------------------------|
E|-------------------------------------------------------------------------|

e|--10----10--13b-bbbbbbrp10-----10-13bbbbbb-15b-15-13--15b-r-p13---------|
B|----13b--------------------13b----------------------15---------15p13h15-|
G|------------------------------------------------------------------------|
D|------------------------------------------------------------------------|
A|------------------------------------------------------------------------|
E|------------------------------------------------------------------------|

e|--13-10--13-------13------13----------13--15b-b--|
B|-------13---15p13----15p13--15-13h15-------------|
G|-------------------------------------------------|
D|-------------------------------------------------|
A|-------------------------------------------------|
E|-------------------------------------------------|

  8
e|-----------------------------------------------------|
B|--10-10-/12------12b-r-r-r-r-r-r-10-10---------------|
G|--10-10-/12------12b-r-r-r-r-r-r-10-10-----------10--|
D|----------------------------------------12-10-12-----|
A|-----------------------------------------------------|
E|-----------------------------------------------------|

  9
e|--10-----------------10-------13b-b-b-b-br-p10--------------------10-|
B|-----13b-r-p10--13b---------------------------13b--------------------|
G|---------------------------------------------------12b-r-p10---------|
D|--------------------------------------------------------------12-----|
A|---------------------------------------------------------------------|
E|---------------------------------------------------------------------|

  10  v=vibrato
e|------10-----|
B|--12v--------|
G|--12v--------|
D|-------------|
A|-------------|
E|-------------|

  SOLO
e|-----------------------------------------------8--10-10-10-10-10-10-10-10-|
B|-------------6---6h8p6---------------6-8--8/10----------------------------|
G|------5--5h7-----7---7-----------5-7--------------------------------------|
D|--5h7------------------------5-7------------------------------------------|
A|-------------------------5-8----------------------------------------------|
E|--------------------------------------------------------------------------|

e|--13-14-15--13-14-15--13-14-15--13-14-15--13-14-15--13-14-15-|
B|-------------------------------------------------------------|
G|-------------------------------------------------------------|
D|-------------------------------------------------------------|
A|-------------------------------------------------------------|
E|-------------------------------------------------------------|

e|--15bbbbbbbbbb--15b-rp13----13-15p13--15b-15-13-15p13---13----|
B|-------------------------15---------------------------15---15-|
G|--------------------------------------------------------------|
D|--------------------------------------------------------------|
A|--------------------------------------------------------------|
E|--------------------------------------------------------------|

e|--13----------13-----------13----------13-----------13------------------|
B|-----15p13-------15p13--------15p13------15p13--------------------------|
G|-----------14----------14-----------14---------12b-----14p12----12b-b-b-|
D|-------------------------------------------------------------15---------|
A|------------------------------------------------------------------------|
E|------------------------------------------------------------------------|


I didn't get the rest cause it is 3:56 in the morning, its all a D minor pentatonic 
It's not to tough. Have fun
Добавлено: 26.03.2012
Другие материалы по этой песне:
  • Аккорды и текст

Страница создана 26.03.2012
http://primanota.ru/creedence-clearwater-revival/penthouse-pauper-chords.htm
Привет, Гость.
Предлагаем пройти революционный курс по гитаре.
Подарок от PrimaNota.Ru, забирай!