PrimaNota.ru - самый крупный в мире бесплатный архив песенных текстов, аккордов, табулатур и нот


Creedence Clearwater Revival - House Of The Rising Sun - бас-таба, видео

Регистрация Запомнить меня
Войти через:  Facebook Google Twitter Vk Yandex Mail.ru

Creedence Clearwater Revival - House Of The Rising Sun - бас-таба, видео

Печатать
Просмотров: 365

G-----------------------2-2--2-0-------2-2--2-0------------|
D-------------2-0-----------------2-2----------2--2-20-----|
A---0-0--2-3-------0-0---------------------------------2-2-|
E----------------------------------------------------------|

G----------------------------|
D---2-2--0-------------------|
A----------2-----------------|
E------------3-1--0--2-3-----|

Let ring for a about 2-3 seconds and replay. as you wish
First tab so I thought I'd use something that I've been playing for years

If I did mess up on something please let me know Thanks
Добавлено: 01.07.2012
Другие материалы по этой песне:
  • Аккорды и текст

Страница создана 01.07.2012
http://primanota.ru/creedence-clearwater-revival/house-of-the-rising-sun-chords.htm
Привет, Гость.
Предлагаем пройти революционный курс по гитаре.
Подарок от PrimaNota.Ru, забирай!