PrimaNota.ru - самый крупный в мире бесплатный архив песенных текстов, аккордов, табулатур и нот


Creed - With Arms Wide Open1 - аккорды и текст, таба, видео

Регистрация Запомнить меня
Войти через:  Facebook Google Twitter Vk Yandex Mail.ru

Creed - With Arms Wide Open1 - аккорды и текст, таба, видео

Печатать
Просмотров: 103
With Arms Wide Open1
Creed
		   CHORDS:
   -------
        EADGBE          EADGBE           EADGBE           EADGBE
   C   (x32010)    C*  (x32013)    Am7* (x02013)    D5   (x577xx)
   C/B (x20010)    Em  (022000)    F5   (133xxx)    C5/B (x25xxx)
   Am7 (x02010)    D*  (xx0235)    C5   (x355xx)    Bb5  (x133xx)
   F   (133211)    G/B (x20030)    E5   (022xxx)    A5   (x022xx)
   
     INTRO:
   ------
       C
   E|-------------------------------------
   B|--0h1-------1-----1h3---1-----0h1p0--
   G|------0-------0-----------0----------
   D|--------2-------2--------------------
   A|--3-------3-----------3-----3--------
   E|-------------------------------------
   
      C/B
   E---------------------------------------
   B--0h1-------1------1h3---1------0h1p0--
   G------0-------0------------0-----------
   D--------0------------------------------
   A--2-------2-----2------2-----2---------
   E---------------------------------------
   
      Am7
   E--------------------------------------   
   B--0h1-------1------0h1p0-------0------   
   G------0-------0----------0-------0----   
   D--------2------------------2----------   
   A--0-------0-----0--0---------0-----0--   
   E--------------------------------------   
                                            
      Am7
   E--------------------------------------|   
   B--0h1-------1------0h1p0-------0------|   
   G------0-------0----------0-------0----|   
   D--------2------------------2----------|  
   A--0-------0-----0--0---------0-----0--|   
   E--------------------------------------|
   

   This picking pattern is used in some of the verses and stuff in
   the song. In general, if you see 'C  C/B  Am7' somewhere, use this
   pattern unless I tell you to do something else. 
   
   VERSE 1: [use picking pattern above]
   --------
        C                    C/B
   Well I just heard     the news today
      Am7
   It seems my life     is going to change
     C                   C/B
   I close my eyes,    begin to pray
        Am7                    Am7
   Then tears of joy    stream down my face
   
   
   CHORUS: [in the last line, start playing the picking pattern again]
   -------
                  F
   With arms wide open
             C*
   Under the sunlight
           Em
   Welcome to this place
                 D*
   I'll show you everything
                  C      C/B                 Am7
   With arms wide open        With arms wide open
   
   
   VERSE 2: [strum each chord once. Notice the G/B instead of C/B]
   --------
        C                  G/B
   Well I don't know    if I'm ready
      Am7              Am7*
   To be the man     I have to be
        C                            G/B
   I'll take a breath, I'll take her by my side
      Am7                    Am7*
   We stand in awe, we've created life
   
   
   CHORUS:
   -------
                  F5
   With arms wide open
             C5
   Under the sunlight
           E5
   Welcome to this place
                 D5
   I'll show you everything
                  F5
   With arms wide open
            C5
   Now everything has changed
                 E5
   I'll show you love
                 D5
   I'll show you everything
   
   
   [play the intro picking pattern for the next 3 lines]
   
                  C     C/B                 Am7
   With arms wide open       With arms wide open
                 C               C/B
   I'll show you everything   oh yeah
                  Am7
   With arms wide open    wide open
   
   
   GUITAR-SOLO:
   ------------
   I ain't gonna tab the solo. Just play these
   chords and make something up:
   
   C5   C5/B   Bb5   A5
   
   
   BRIDGE:
   -------
            C5
   If I had just one wish
        C5/B
   Only one demand
               Bb5
   I hope he's not like me
             A5
   I hope he understands
               C5
   That he can take this life
               C5/B
   And hold it by the hand
              Bb5
   And he can greet the world
                  A5
   With arms wide open
   
   
   CHORUS:
   -------
                  F5
   With arms wide open
             C5
   Under the sunlight
           E5
   Welcome to this place
                 D5
   I'll show you everything
                  F5
   With arms wide open
            C5
   Now everything has changed
                 E5
   I'll show you love
                 D5
   I'll show you everything 
   
   
   OUTRO: [play the same old picking pattern]
   ------
                  C      C/B                 Am7
   With arms wide open        with arms wide open
                 C               C/B
   I'll show you everything,  oh yeah
                  Am7
   With arms wide open
        C
   Wide open
       
Добавлено: 11.07.2013
Другие материалы по этой песне:
  • Аккорды и текст

Страница создана 11.07.2013
http://primanota.ru/creed/with-arms-wide-open1-chords.htm
Привет, Гость.
Предлагаем пройти революционный курс по гитаре.
Подарок от PrimaNota.Ru, забирай!