PrimaNota.ru - самый крупный в мире бесплатный архив песенных текстов, аккордов, табулатур и нот


Creed - Suddenly - таба, видео

Регистрация Запомнить меня
Войти через:  Facebook Google Twitter Vk Yandex Mail.ru

Creed - Suddenly - таба, видео

Печатать
Просмотров: 197
Уроки эстрадного вокала в Санкт-Петербурге
Creed - "Suddenly"
From "Full Circle" Album
C# Tuning (Low to High: C# F# B E G# C#) 
tabbed by jjhand

I know a few people requested this in the Tab Requests. Most of this album 
is in tunings similar to this C# tuning (1.5 steps lower than standard), so
I hope you have higher gauge strings to get good tension. I played it on my 
7-string to verify the melody, but the tab is fairly accurate for a 6 string. 
Please rate or comment on the tab, and thanks for checking out my work.


Intro -
|-----|---------------------------------|---------------------------------|
|-----|---------------------------------|---------------------------------|
|-----|---------------------------------|---------------------------------|
|-----|-6-----------------6-------------|-6-----------------6-------------|
|-----|-----7---8-----8-------7-8-10-8--|-----7---8-----8-------7-8-10-8--|
|-0-0-|---0---0---0-0---0---0---------0-|---0---0---0-0---0---0---------3-|

|---------------------------------|---------------------|
|---------------------------------|---------------------|
|---------------------------------|---------------------|
|---------------------------------|---------------------|
|-3---2---0-----0---0-2-3-5-3-2---|---3---2---0---------|
|---3---3---3-3---3-------------0-|-1---1---1-----------|



Pre-Verse Riff (this is really fast & hard to play)
|------------------------------------|------------------------------------|
|------------------------------------|------------------------------------|
|-13---9---10---10---13---9-10-9-9-9-|-13---9---10---10---13---9-10-9-----|
|------------------------------------|------------------------------------|
|-11---7---8----8----11---7-8--7-7-7-|-11---7---8----8----11---7-8--7-----|
|----0---0---------0----0------------|----0---0---------0----0--------0-0-|

|---------------------------------|--------------------------------|
|---------------------------------|--------------------------------|
|---------------------------------|--------------------------------|
|---------------------------------|--------------------------------|
|-3---2---0-----0---0-2-3-5-3-2-0-|---3---2---0-----0---2b3r2~-----|
|---3---3---3-3---3---------------|-1---1---1---1-1---1--------3p0-|



Verse Riff - play 2x
|---------------------------------|---------------------------------|
|---------------------------------|---------------------------------|
|---------------------------------|---------------------------------|
|-6-----------------6-------------|-6-----------------6-------------|
|-----7---8-----8-------7-8-10-8--|-----7---8-----8-------7-8-10-8--|
|---0---0---0-0---0---0---------0-|---0---0---0-0---0---0---------3-|

1."By nature, through nurture     an instinct to sin what's"
2."Betrayed, you're an image      Oh precious creation"


|---------------------------------|--------------------------------|
|---------------------------------|--------------------------------|
|---------------------------------|--------------------------------|
|---------------------------------|--------------------------------|
|-3---2---0-----0---0-2-3-5-3-2-0-|---3---2---0-----0---2b3r2~-----|
|---3---3---3-3---3---------------|-1---1---1---1-1---1--------3p0-|

1."underneath                        the skin you live in"
2."You will submit                   you will give in"





Chorus - play 2x  (pm the final notes on the repeat)
|--------------------|-----------------------|-----------------------|----------------------|
|--------------------|-----------------------|-----------------------|----------------------|
|-0----0---0-0-------|-4----4----4h5-5--5----|-----------------------|----------------------|
|-2----2---2-2--5----|-2----2----2---2--2----|-----------------------|----------------------|
|-3----3---3-3--2--0-|-0----0----0---0--0----|-3----3---3-3-3-3-3--3-|-3----3---3-2-2--2--2-|
|--------------------|---------------------0-|-1----1---1-1-1-1-1--0-|-0----0---0-0-0--0--0-|

1."Suddenly I have no  strength at all            So suddenly hit      with all I've lost"
2."Suddenly my world   is falling apart           so suddenly  so suddenly       suddenly"



Play Pre-Verse Riff, then Verse Riff again

Verse 2 Lyrics:
"Say you're a victim but that's just a symptom
It's all very clear, you volunteered
Why are you fighting? Just stop your denying.
Own up to the sin you bury within"



Play Chorus again



Bridge (pm all notes on lowest string) - play 2x
|--------------------------------|--------------------------------|
|--------------------------------|--------------------------------|
|--------------------------------|--------------------------------|
|--------------------------------|--------------------------------|
|-5-----5-----5-----5------------|-3-----3-----2-----2------------|
|---0-0---0-0---0-0---0-0-333333-|---0-0---0-0---0-0---0-0-333111-|


Bridge Part 2:

Play this part 2x with two endings below:

|------------------------|-----------------------|--------------------------|
|------------------------|-----------------------|--------------------------|
|------------------------|-----------------------|--------------------------|
|------------------------|-4----4---4------------|--------------------------|
|-5----5---5----7---7-7--|-2----2---2---5--5--5--|-5----5---5----7---7--PMPM|
|-3----3---3----5---5-5--|-0----0---0---5--5--5--|-3----3---3----5---5--0-0-|

"I have no strength at all, I've been hit with a loss. Suddenly my world"

Ending 1
|--------------------------------|
|--------------------------------|
|--------------------------------|
|--------------------------------| play the above line again
|-2-----2-----2-----2------------|
|---0-0---0-0---0-0---0-0-333330-|

"falls apart!"

Ending 2
|------------------------------------|------------------------------------|
|------------------------------------|------------------------------------|
|-13---9---10---10---13---9-10-9-9-9-|-13---9---10---10---13---9-10-9-----|
|------------------------------------|------------------------------------|
|-11---7---8----8----11---7-8--7-7-7-|-11---7---8----8----11---7-8--7-----|
|----0---0---------0----0------------|----0---0---------0----0------------|

"falls apart!"


Play Chorus Again 2x



Ending - 
       play this bar 3x                    Finally:
|------------------------------------|     ----------------------------|
|------------------------------------|     ----------------------------|
|-13---9---10---10---13---9-10-9-9-9-|     -13---9----10---------------|
|------------------------------------|     ----------------------------|
|-11---7---8----8----11---7-8--7-7-7-|     -11---7----8----------------|
|----0---0---------0----0------------|     ----0---0--0----------------|
     Pm all open C# notes


key
| /  slide up
| \  slide down
| h  hammer-on
| p  pull-off
| ~  vibrato
| x  Mute note
| b  bend string
| r  release bend
Добавлено: 29.03.2012
Другие материалы по этой песне:

Страница создана 08.03.2012
http://primanota.ru/creed/suddenly-chords.htm
Привет, Гость.
Предлагаем пройти революционный курс по гитаре.
Подарок от PrimaNota.Ru, забирай!