PrimaNota.ru - самый крупный в мире бесплатный архив песенных текстов, аккордов, табулатур и нот


Creed - Six Feet Under - таба, видео

Регистрация Запомнить меня
Войти через:  Facebook Google Twitter Vk Yandex Mail.ru

Creed - Six Feet Under - таба, видео

Печатать
Просмотров: 92
Artist: Creed
Title: Six Feet Under


This is a very hard song to learn and play but with pratice you should get 
it. Use hammer ons and pull offs and slides where it is comfortable for you. 
I did not write where i use them because it would mess up the tab but listen 
to the songs and you can figure it out easially. Listen closely for the 
rhythem. This tab is rhythemically correct so if you can read a good tab 
then it should be easy for you. I made this tab by ear and i would glady 
appreciate corrections if any are needed. I know that the ending is not 
right but it sounds good anyway to play mine. Enjoy.


Intro / Verse (written in 1/2 time)
|2---5---0-2-------------------------------------------------3-2-|
|------------3-----2-3-5---323-2-0---3---2-3-0-----------3-------|
|--------------2-------------------------------------0-----------|
|----------------------------------------------4---0---0---0-----|
|----------------------------------------------------------------|
|----------------------------------------------------------------|

|2---3---2-320---------------------------2---------------3-------|
|--------------3-------2-320-----------3---3-----------3---3-----|
|--------------------2---------------4-------4-------0-------0---|
|------------------2---------4-5-------------------0-----------0-|
|----------------------------------2-----------2-----------------|
|----------------------------------------------------------------|


Bridge (clean)
|--------------------------------|
|--------------------------------|
|7---7--7772---224---4--444------|
|7---7--7772---224---4--4445---55|
|5---5--5552---222---2--2225---55|
|--------------------------3---33|


Chorus (distortion)
|--------------------------------|
|--------------------------------|
|7---7--7-22-2-224---4--4--------|
|7---7--7-22-2-224---4--4-55-5-55|
|5---5--5-00-0-002---2--2-55-5-55|
|-------------------------33-3-33|


Post-Chorus (distortion)
|--------------------------------|
|--------------------------------|
|4--44-----------4--44-----------|
|4--44-5--55-5-554--44-5--55-5-55|
|2--22-5--55-5-552--22-5--55-5-55|
|------3--33-3-33------3--33-3-33|


Interlude (distortion)
|----------------------------------------------------------------|
|----------------------------------------------------------------|
|--------------7---7-7-77-77-7-772-2-2-227-7-774---4-4-44-44-4-44|
|2-2-2-225-5-557---7-7-77-77-7-772-2-2-227-7-774---4-4-44-44-4-44|
|2-2-2-225-5-555---5-5-55-55-5-550-0-0-005-5-552---2-2-22-22-2-22|
|0-0-0-003-3-33--------------------------------------------------|


Ending (clean)
|2-------0-2-------------------------------------------3---------|
|--------------3---------5---3-2-3-2-0---0---0-----0-----3-------|
|------------------2---2-------------------2-----0---0-----------|
|----------------------------------------------------------------|
|----------------------------------------------------------------|
|----------------------------------------------------------------|

Ok now heres the order:

Intro/Verse X3
Bridge      X2
Intro/Verse X3
Chorus      X4
Post-Chours X1
Interlude   X2
Bridge      X2
Chorus      X4
Ending      X1



Andy Hildreth
     
Добавлено: 01.09.2013
Другие материалы по этой песне:
  • Аккорды и текст

Страница создана 01.09.2013
http://primanota.ru/creed/six-feet-under-chords.htm
Привет, Гость.
Предлагаем пройти революционный курс по гитаре.
Подарок от PrimaNota.Ru, забирай!