PrimaNota.ru - самый крупный в мире бесплатный архив песенных текстов, аккордов, табулатур и нот


Creed - Bullets - аккорды и текст, таба, видео

Регистрация Запомнить меня
Войти через:  Facebook Google Twitter Vk Yandex Mail.ru

Creed - Bullets - аккорды и текст, таба, видео

Печатать
Просмотров: 269
Авторы музыки: Scott Stapp, Mark Tremonti

Bullets
Creed
Bullets of Creed

Drop D

Fernando Delgado

Intro – (Mark uses the wah wah as a filter)
--------------------------------------------------|
--------------------------------------------------|
--------------------------------------------------|
--------------------------------------------------|
--------------------------------------------------|
-0-0-0-0-0-0-0-0-0-0-0-0-0-0-0-0-0-0-0-0-0-0-0-0--|
                 				      
--------------------------------------------------|
--------------------------------------------------|
--------------------------------------------------|
--------------------------------------------------|
--------------------------------------------------|
-0-0-0-0-0-0-0-0-0-0-0-0-0-0-0-0-0-0-0-0-0-0-0-0--|

Then this - (play 2x)
-------------------------------------------------------|
-------------------------------------------------------|
-------------------------------------------------------|
-------------------------------------------------------|
-12-12-12-12-12-12---------------------12-12-12-12-12--|
--0--0--0--0--0--0-0-0-0-0-0-0-0-0-0-0--0--0--0--0--0--|

-------------------------------------------------------|
-------------------------------------------------------|
-------------------------------------------------------|
-------------------------------------------------------|
-13-13-13-13-13-13---------------------13-13-12-12-12--|
--0--0--0--0--0--0-0-0-0-0-0-0-0-0-0-0--0--0--0--0--0--|

------------------------------------------------------|
------------------------------------------------------|
------------------------------------------------------|
------------------------------------------------------|
-10-10-10-10-10-10---------------------10-10-12-12-12-|
--0--0--0--0--0--0-0-0-0-0-0-0-0-0-0-0--0--0--0--0--0-|

------------------------------------------------------|
------------------------------------------------------|
------------------------------------------------------|
------------------------------------------------------|
-13-13-12-12-12-12-----------------------------12-12--|
--0--0--0--0--0--0-0-0-0-0-0-0-0-0-0-0-0-0-0-0--0--0--|

Then this - 
-------------------------------------------------------|
-------------------------------------------------------|
-------------------------------------------------------|
-14-14-14-14-14-14---------------------14-14-14-14-14--|
-12-12-12-12-12-12---------------------12-12-12-12-12--|
--0--0--0--0--0--0-0-0-0-0-0-0-0-0-0-0--0--0--0--0--0--|

-------------------------------------------------------|
-------------------------------------------------------|
-------------------------------------------------------|
-15-15-15-15-15-15---------------------15-15-14-14-14--|
-13-13-13-13-13-13---------------------13-13-12-12-12--|
--0--0--0--0--0--0-0-0-0-0-0-0-0-0-0-0--0--0--0--0--0--|

-------------------------------------------------------|
-------------------------------------------------------|
-------------------------------------------------------|
-12-12-12-12-12-12---------------------12-12-14-14-14--|
-10-10-10-10-10-10---------------------10-10-12-12-12--|
--0--0--0--0--0--0-0-0-0-0-0-0-0-0-0-0--0--0--0--0--0--|

------------------------------------------------------|
------------------------------------------------------|
-12-12-12-12-12-12---------------------12-12-12-12-12-|
------------------------------------------------------|
-10-10-10-10-10-10---------------------10-10-10-10-10-|
--0--0--0--0--0--0-0-0-0-0-0-0-0-0-0-0--0--0--0--0--0-|
     
-----------------------------------------------------------------|
-----------------------------------------------------------------|
-14-14-14-14-14-14-14-14-14-14-15-15-15-15-15-15/17-17-17-17-17--|
-----------------------------------------------------------------|
-12-12-12-12-12-12-12-12-12-12-13-13-13-13-13-13/15-15-15-15-15--|
--0--0--0--0--0--0--0--0--0--0--0--0--0--0--0--0--0--------------|


(distortion on, in at 0:47)
-----------------------------------------------------------------------|
-----------------------------------------------------------------------|
-----------------------------------------------------------------------|
-----------------------------------------------------------------------|
----------------------15--------------13-------------------------------|
-13-12-0-12-0-12-0-12----12-0-12-0-12----12-0-12-0-12-13-12-0-10-12-0--|


Verse – (all palm muted, in at 0:59)
-----------------------------------------------------------------------|
-----------------------------------------------------------------------|
-----------------------------------------------------------------------|
-----------------------------------------------------------------------|
----------------------15--------------13-------------------------------|
-13-12-0-12-0-12-0-12----12-0-12-0-12----12-0-12-0-12-13-12-0-10-12-0--|


Chorus – “Look at me . . .” (in at 1:22)
--------------------|--------------------|
--------------------|--------------------|
--------------------|--------------------|
--------------0/~--|--------------------|
-0-1-0-1-0-1--0/~--|-0-1-0-1-0-1--0-0-0-|
-0-1-0-1-0-1--0/~--|-0-1-0-1-0-1--0-0-0-|
                                   * * *

--------------------|---------------------------|
--------------------|---------------------------|
--------------------|---------------------------|
--------------0/~--|----------------1^ph-------|
-0-1-0-1-0-1--0/~--|-0-1-0-1-0-1--0------3^ph--|
-0-1-0-1-0-1--0/~--|-0-1-0-1-0-1--0------------|


Then the verse – 1:34


Then the chorus – 1:58


Post-Chorus – (rapid fire! In at 2:09)
------------------|-------------------|-------------------------|
------------------|-------------------|-------------------------|
------------------|-------------------|-------------------------|
------------------|-------------------|-------------------------|
-13-12-0-10-12-0--|--13-12-0-10-12-0--|--13-12-0-10-12---0-0-0--|
-13-12-0-10-12-0--|--13-12-0-10-12-0--|--13-12-0-10-12---0-0-0--|
                                                         * * *

------------------|-------------------|------------------------|
------------------|-------------------|------------------------|
------------------|-------------------|------------------------|
------------------|-------------------|------------------------|
-13-12-0-10-12-0--|--13-12-0-10-12-0--|--13-12-0-10-12---0/~--|
-13-12-0-10-12-0--|--13-12-0-10-12-0--|--13-12-0-10-12---0/~--|

------------------|-------------------|-------------------------|
------------------|-------------------|-------------------------|
------------------|-------------------|-------------------------|
------------------|-------------------|-------------------------|
-13-12-0-10-12-0--|--13-12-0-10-12-0--|--13-12-0-10-12---0-0-0--|
-13-12-0-10-12-0--|--13-12-0-10-12-0--|--13-12-0-10-12---0-0-0--|
                                                         * * *
 
------------------|-------------------|-------------------------|
------------------|-------------------|-------------------------|
------------------|-------------------|-------------------------|
------------------|-------------------|-------------------------|
-13-12-0-10-12-0--|--13-12-0-10-12-0--|--13-12-0-10-12---0-0-0--|
-13-12-0-10-12-0--|--13-12-0-10-12-0--|--13-12-0-10-12---0-0-0--|
                                                         * * *


Then this – (big ol' whammy bar bends, bend to desired pitch)
---------------------------|
---------------------------|
---------------------------|
-0(5^)/~------------------|
-0(5^)/~------------------|
-0(5^)/~---5b/~---3b/~--|


Bridge – “Hey, all I need is what's real . . .” (in at 2:34)
-------------------------------------------------------|
-------------------------------------------------------|
-------------------------------------------------------|
-------------------------------------------------------|
-12-12-12-12-12-12---------------------12-12-12-12-12--|
--0--0--0--0--0--0-0-0-0-0-0-0-0-0-0-0--0--0--0--0--0--|

-------------------------------------------------------|
-------------------------------------------------------|
-------------------------------------------------------|
-------------------------------------------------------|
-13-13-13-13-13-13---------------------13-13-12-12-12--|
--0--0--0--0--0--0-0-0-0-0-0-0-0-0-0-0--0--0--0--0--0--|

------------------------------------------------------|
------------------------------------------------------|
------------------------------------------------------|
------------------------------------------------------|
-10-10-10-10-10-10---------------------10-10-12-12-12-|
--0--0--0--0--0--0-0-0-0-0-0-0-0-0-0-0--0--0--0--0--0-|

------------------------------------------------------|
------------------------------------------------------|
------------------------------------------------------|
------------------------------------------------------|
-13-13-12-12-12-12-----------------------------12-12--|
--0--0--0--0--0--0-0-0-0-0-0-0-0-0-0-0-0-0-0-0--0--0--|

Then this - 
-------------------------------------------------------|
-------------------------------------------------------|
-------------------------------------------------------|
-14-14-14-14-14-14---------------------14-14-14-14-14--|
-12-12-12-12-12-12---------------------12-12-12-12-12--|
--0--0--0--0--0--0-0-0-0-0-0-0-0-0-0-0--0--0--0--0--0--|

-------------------------------------------------------|
-------------------------------------------------------|
-------------------------------------------------------|
-15-15-15-15-15-15---------------------15-15-14-14-14--|
-13-13-13-13-13-13---------------------13-13-12-12-12--|
--0--0--0--0--0--0-0-0-0-0-0-0-0-0-0-0--0--0--0--0--0--|

-------------------------------------------------------|
-------------------------------------------------------|
-------------------------------------------------------|
-12-12-12-12-12-12---------------------12-12-14-14-14--|
-10-10-10-10-10-10---------------------10-10-12-12-12--|
--0--0--0--0--0--0-0-0-0-0-0-0-0-0-0-0--0--0--0--0--0--|

------------------------------------------------------|
------------------------------------------------------|
------------------------------------------------------|
-15-15-14-14-14-14-----------------------------14-14--|
-13-13-12-12-12-12-----------------------------12-12--|
--0--0--0--0--0--0-0-0-0-0-0-0-0-0-0-0-0-0-0-0--0--0--|

(distortion, in at 2:57) “Please, help me find it please . . .”
----------------------------------------------------------------------|
----------------------------------------------------------------------|
-14--14-14-14-14--14-14-14-14--14-14-14-14-14-14--14/15--15-15-15-15--|
----------------------------------------------------------------------|
-12--12-12-12-12--12-12-12-12--12-12-12-12-12-12--12/13--13-13-13-13--|
--0---0--0--0--0---0--0--0--0---0--0--0--0--0--0---0------0--0--0--0--|           

---------------------------------------------------------------|
---------------------------------------------------------------|
-15-15-15-15--15-15-15-15-15-15--12--12-12-12-12--12-12-12-12--|
---------------------------------------------------------------|
-13-13-13-13--13-13-13-13-13-13--10--10-10-10-10--10-10-10-10--|
--0--0--0--0---0--0--0--0--0--0---0---0--0--0--0---0--0--0--0--|
                                                                             
---------------------------------------------|
---------------------------------------------|
-12-12-12--12/14-14-14--14/15--15-15--15/17--|
---------------------------------------------|
-10-10-10--10/12-12-12--12/13--13-13--13/15--|
--0--0--0---0-----0--0---0------0--0---0-----|       


Then the chorus – in at 3:09

Then the post-chorus – in at 3:33

Last chord –
------|
------|
------|
--0~--|
--0~--|
--0~--|
Thats all  enjoy 
Добавлено: 20.03.2012
Другие материалы по этой песне:

Страница создана 20.03.2012
http://primanota.ru/creed/bullets-chords.htm
Привет, Гость.
Предлагаем пройти революционный курс по гитаре.
Подарок от PrimaNota.Ru, забирай!