PrimaNota.ru - самый крупный в мире бесплатный архив песенных текстов, аккордов, табулатур и нот


Creed - 6 Feet From The Edge - таба, видео

Регистрация Запомнить меня
Войти через:  Facebook Google Twitter Vk Yandex Mail.ru

Creed - 6 Feet From The Edge - таба, видео

Печатать
Просмотров: 115
Artist: Creed
Track: 6 feet from the edge
submitted by: Cory Mollison mollo2811@hotmail.com
 
h = hammer on
p = pull off
s = slide
 
****alternate these 2 riffs for the finger picking parts
 
--2---5---0h2----------------------------------------------------------3p0---
---------------3-0----2-3-3h5p3-2h3p2-0-0---3---2h3p0------------3-----------
------------------------------------------------------------0----------------
--0-0---0-------------------------------------------------0------------------
--------------------0-------------------2-2---2-------0----------------------
--------------------------------------------------------3------3----3--------
 
--2---3---2h3p2p0-3p2---------------------------2---------------3-------
----------------------------2-3p2p0-2-0-------2---2-----------3---3-----
--------------------------2-----------------4-------4-------0-------0---
--0-0---0---------------2-----------------4-----------4---0-----------0-
----------------------0-----------------2-------------------------------
--------------------------------------------------------3---------------
 
****quiet part
          
    hold me now...        
--2------------------------0-----------3------------
--3------------2-----------2-----------3------------
--2------------3-----------2-----------0------------
---------------4------------------------------------
----------------------------------------------------
----------------------------------------------------
 
****Chorus
 
-----------------------------------------          -------------
-----------------------------------------          -------------
--7--------------------------------------          -------------
--7--------4--------9--------5-----------         bridge   --9--s--5----  X2
--5--------4--------9--------5-----------          --9--s--5---- 
--5--------2--------7--------3-----------          --7--s--3----
 
****middle section
 
------------------------------------------
------------------------------------------
--------14-----7--------------4-----------
--2-----12-----7-------7------4------5----
--2------------5-------7------2------5----
--0------------5-------5-------------3----
 
*you should be able to work out the order on your own,
any questions or quiries email me, mollo2811@hotmail.com
 
This tab is all my own work and took a few hours to complete so hope you
enjoy!

________________________________________________________________________________
     
Добавлено: 15.08.2013
Другие материалы по этой песне:
  • Аккорды и текст

Страница создана 15.08.2013
http://primanota.ru/creed/6-feet-from-the-edge-chords.htm
Привет, Гость.
Предлагаем пройти революционный курс по гитаре.
Подарок от PrimaNota.Ru, забирай!