PrimaNota.ru - самый крупный в мире бесплатный архив песенных текстов, аккордов, табулатур и нот


Creatures - Pluto Drive - текст песни, бас-таба, видео

Регистрация Запомнить меня
Войти через:  Facebook Google Twitter Vk Yandex Mail.ru

Creatures - Pluto Drive - текст песни, бас-таба, видео

Печатать
Просмотров: 129
Song: Pluto Drive
By: The Creatures

This is the 7th track on the Creatures' "Boomerang" CD. =20
A very beautiful song, almost hypnotic.


This is the riff played throughout the verses:=20

G|-----------------------------------
D|-----------0-0-0-------------------
A|------8-7-------------------------- =20
E|-----------------------------------

Play this riff until Sioux sings:

"With oceans of methane..."  Right on "oceans" you start=20
playing the chorus riff=20
(it's almost seamless the way it happens):

G|---------------------------------------------------------
D|---12-12-12-12-12---7-7-7-7-7--8-8-8-8-8-----------------   X 5
A|-----------------------------------------8-8-8-8-8------- =20
E|---------------------------------------------------------


After the 5th time, go back to the verse riff.

Then when she sings "Let's go to Pluto like we did before", right on =
"Let's"

you again play the Chorus riff 5 times, but on the 5th time, it will be =
this:

G|---------------------------------------------------------
D|---12-12-12-12-12---7-7-7-7-7--8-8-8-8-8-----------------  =20
A|-----------------------------------------10-10-10-10-10-- =20
E|---------------------------------------------------------

Play it like that once and for the next couple of times, it will be like =
the original chorus riff.

Towards the end (about one minute before the song ends), you end the =
riff on the 10th fret.
You can hear when the change is going to come.=20


That's about it for this beautiful song.

Questions, suggestions, or comments are welcome: =
darkling97@peoplepc.com.
Or just to let me know that there are people out there enjoying playing=20
The Creatures music like I do.

     
Добавлено: 20.08.2013
Другие материалы по этой песне:
  • Аккорды и текст

Страница создана 24.03.2012
http://primanota.ru/creatures/pluto-drive-chords.htm
Привет, Гость.
Предлагаем пройти революционный курс по гитаре.
Подарок от PrimaNota.Ru, забирай!