PrimaNota.ru - самый крупный в мире бесплатный архив песенных текстов, аккордов, табулатур и нот


Creatures - Pinned Down - текст песни, бас-таба, видео

Регистрация Запомнить меня
Войти через:  Facebook Google Twitter Vk Yandex Mail.ru

Creatures - Pinned Down - текст песни, бас-таба, видео

Печатать
Просмотров: 141
Song: Pinned Down
By: The Creatures

This is from the Creatures' EP "Eraser Cut." =20

The bass first comes in at the start of the second verse:

Verse Riff:

G|-----------------------------------
D|----------------------------------- X 3
A|----------------7-5---------------- =20
E|--0--0--0--0--------0--------------

    "A bug stuck, on a pin..."

Then when she sings "Till you're the one that's left=20
pinned doooown..." play:

G|-----------------------------------
D|-----------------------------------
A|---7-5----------------------------- =20
E|--------0--------------------------

This is where it gets fun:

After she sings "down" play:

G|----------------------------------------------------
D|----------------------------------------------------  x  2
A|---0-0-8888-7-0--0-8888-7-0---0-8888-7-0--3-2-0-----=20
E|----------------------------------------------------

Back to verse riff.

The rest of the song is the same and the pattern is very, very easy to =
follow.

The end:

E|----3-2-0-------


Questions, suggestions, or comments are welcome: =
darkling97@peoplepc.com.
Or just to let me know that there are people out there enjoying playing=20
The Creatures music like I do.


     
Добавлено: 04.10.2013
Другие материалы по этой песне:
  • Аккорды и текст

Страница создана 17.07.2012
http://primanota.ru/creatures/pinned-down-chords.htm
Привет, Гость.
Предлагаем пройти революционный курс по гитаре.
Подарок от PrimaNota.Ru, забирай!