PrimaNota.ru - самый крупный в мире бесплатный архив песенных текстов, аккордов, табулатур и нот


Creatures - Illusive Faults - таба, видео

Регистрация Запомнить меня
Войти через:  Facebook Google Twitter Vk Yandex Mail.ru

Creatures - Illusive Faults - таба, видео

Печатать
Просмотров: 87
http://www.myspace.com/weareallcreatures

    eb|------------------------ x2 ---------------------------------------|
    Bb|-------------------------------------------------------------------|
GTR Gb|-------------------------------------------------------------------|
 1  Db|-9/10------7/9------9/10----7/9-----9/10------7/9------3---7---7/9-|
    Ab|-7/8-------5/7------7/8-----5/7-----7/8-------5/7------3---5---5/7-|
    Eb|------0000-----0000------00----0000------0000-----0000-1-0---0-----|
             PMPM     PMPM      PM    PMPM      PMPM     PMPM  PM  PM

    eb|------------------------ x2 ---------------------------------------|
    Bb|-------------------------------------------------------------------|
GTR Gb|-------------------------------------------------------------------|
 2  Db|-------------------------------------------------------3---7---7/9-|
    Ab|-------------------------------------------------------3---5---5/7-|
    Eb|-------------------------------------------------------1-0---0-----|
                                                               PM  PM

    eb|------------------------- x2 --------------------------------------|
    Bb|-------------------------------------------------------------------|
GTR Gb|-------------------------------------------------------------------|
1+2 Db|-9/10------7/9------9/10----7/9-----9/10------7/9------3---7---7/9-|
    Ab|-7/8-------5/7------7/8-----5/7-----7/8-------5/7------3---5---5/7-|
    Eb|------0000-----0000------00----0000------0000-----0000-1-0---0-----|
             PMPM     PMPM      PM    PMPM      PMPM     PMPM  PM  PM


    eb|------------------------- x2 --------------------------------------|
    Bb|-------------------------------------------------------------------|
GTR Gb|-------------------------------------------------------------------|
 1  Db|-9/10------7/9------9/10----7/9-----9/10------7/9------3---7---7/9-| 
    Ab|-7/8-------5/7------7/8-----5/7-----7/8-------5/7------3---5---5/7-|
    Eb|------0000-----0000------00----0000------0000-----0000-1-0---0-----|
             PMPM     PMPM      PM    PMPM      PMPM     PMPM  PM  PM

    eb|------------------------- x2 --------------------------------------|
    Bb|-------------------------------------------------------------------|
GTR Gb|-12h14-----11h12----12h14---11h12---12h14---11h12------------------|
 2  Db|-------------------------------------------------------3---7---7/9-|
    Ab|-------------------------------------------------------3---5---5/7-|
    Eb|--------------------------------------------------0000-1-0---0-----|
                                                         PMPM  PM  PM

    eb|------------------------------------------------------------|
    Bb|------------------------------------------------------------|
GTR Gb|------------------------------------------------------------|
1+2 Db|-2----------------3-------2-3-3----------------10\9-7-9-7-6-| x2
    Ab|-2--2-2-2-2-2-2-2-3-2-2-2-2-3-1--1-1-1-1-1-1-1-8-\7-5-7-5-4-|
    Eb|-0--0-0-0-0-0-0-0-1-0-0-0-0-1-1--1-1-1-1-1-1-1--------------|
           P M P M P MPM   PMP M        P M P M P MPM

    eb|------------------------- x2 --------------------------------------|
    Bb|-------------------------------------------------------------------|
GTR Gb|-------------------------------------------------------------------|
1+2 Db|-9/10------7/9------9/10----7/9-----9/10------7/9------3---7---7/9-|
    Ab|-7/8-------5/7------7/8-----5/7-----7/8-------5/7------3---5---5/7-|
    Eb|------0000-----0000------00----0000------0000-----0000-1-0---0-----|
             PMPM     PMPM      PM    PMPM      PMPM     PMPM  PM  PM


    eb|------------------------- x2 --------------------------------------|
    Bb|-------------------------------------------------------------------|
GTR Gb|-------------------------------------------------------------------|
 1  Db|-9/10------7/9------9/10----7/9-----9/10------7/9------3---7---7/9-|
    Ab|-7/8-------5/7------7/8-----5/7-----7/8-------5/7------3---5---5/7-|
    Eb|------0000-----0000------00----0000------0000-----0000-1-0---0-----|
             PMPM     PMPM      PM    PMPM      PMPM     PMPM  PM  PM

    eb|------------------------ x2 ---------------------------------------|
    Bb|-------------------------------------------------------------------|
GTR Gb|-12h14-----11h12----12h14---11h12---12h14---11h12------------------|
 2  Db|-------------------------------------------------------3---7---7/9-|
    Ab|-------------------------------------------------------3---5---5/7-|
    Eb|--------------------------------------------------0000-1-0---0-----|
                                                         PMPM  PM  PM

    eb|------------------------------------------------------------|
    Bb|------------------------------------------------------------|
GTR Gb|------------------------------------------------------------|
1+2 Db|-2----------------3-------2-3-3----------------10\9-7-9-7-6-| 
    Ab|-2--2-2-2-2-2-2-2-3-2-2-2-2-3-1--1-1-1-1-1-1-1-8-\7-5-7-5-4-|
    Eb|-0--0-0-0-0-0-0-0-1-0-0-0-0-1-1--1-1-1-1-1-1-1--------------|
           P M P M P MPM   PMP M        P M P M P MPM

    eb|---------------------------------------------------------------|
    Bb|---------------------------------------------------------------|
GTR Gb|---------------------------------------------------------------|
1+2 Db|-2----------------3-------2-3-3--------------------------------| 
    Ab|-2--2-2-2-2-2-2-2-3-2-2-2-2-3-1--1-1-1-1-1-1-1-3-3-3-3-3-3-3-3-|
    Eb|-0--0-0-0-0-0-0-0-1-0-0-0-0-1-1--1-1-1-1-1-1-1-1-1-1-1-1-1-1-1-|
           P M P M P MPM   PMP M        P M P M P M P M P M M P M P M

    eb|----------------------------------------|
    Bb|----------------------------------------|
GTR Gb|----------------------------------------|
 1  Db|-2----------------9---10---12---10-10\9-| 1,3
    Ab|-2--2-2-2-2-2-2-2-7---8----10---8--8-\7-|
    Eb|-0--0-0-0-0-0-0-0---0----0----0---------|
           P M P M P MPM  PM   PM   PM


    eb|------------------------------------|
    Bb|------------------------------------|
GTR Gb|------------------------------------|
 1  Db|-------------13---12---10---12-10\9-| 2
    Ab|-2-2-2-2-2-2-11---10---8----10-8-\7-|
    Eb|-0-0-0-0-0-0----0----0----0---------|
        P M P M P M   PM   PM   PM

    eb|-----------------------|
    Bb|-----------------------|
GTR Gb|-----------------------|
 1  Db|---------------5--2--3-| 4
    Ab|-2-2-2-2-2-2-2-5--2--3-|
    Eb|-0-0-0-0-0-0-0-3--0--1-|
        P M P M P M

    eb|----------------------------------------|
    Bb|----------------------------------------|
GTR Gb|----------------------------------------|
1+2 Db|-2----------------9---10---12---10-10\9-| 1,3
    Ab|-2--2-2-2-2-2-2-2-7---8----10---8--8-\7-|
    Eb|-0--0-0-0-0-0-0-0---0----0----0---------|
           P M P M P MPM  PM   PM   PM


    eb|------------------------------------|
    Bb|------------------------------------|
GTR Gb|------------------------------------|
1+2 Db|-------------13---12---10---12-10\9-| 2
    Ab|-2-2-2-2-2-2-11---10---8----10-8-\7-|
    Eb|-0-0-0-0-0-0----0----0----0---------|
        P M P M P M   PM   PM   PM

    eb|-----------|
    Bb|-----------|
GTR Gb|-----------|
1+2 Db|---5--2--3-| 4
    Ab|-2-5--2--3-|
    Eb|-0-3--0--1-|

    eb|--------------------------------------------------|
    Bb|--------------------------------------------------|
GTR Gb|--------------------------------------------------|
 1  Db|-9/10------7/9------9/10----7/9-----9/10------7/9-| 
    Ab|-7/8-------5/7------7/8-----5/7-----7/8-------5/7-|
    Eb|------0000-----0000------00----0000------0000-----|
             PMPM     PMPM      PM    PMPM      PMPM   

    eb|-------------------------- x2 -------------------------------------|
    Bb|-------------------------------------------------------------------|
GTR Gb|-------------------------------------------------------------------|
1+2 Db|-9/10------7/9------9/10----7/9-----9/10------7/9------3---7---7/9-| 
    Ab|-7/8-------5/7------7/8-----5/7-----7/8-------5/7------3---5---5/7-|
    Eb|------0000-----0000------00----0000------0000-----0000-1-0---0-----|
             PMPM     PMPM      PM    PMPM      PMPM     PMPM  PM  PM  

    eb|----------------------------------|
    Bb|----------------------------------|
GTR Gb|-----------------9----------------|
1+2 Db|-2--------------------------------|
    Ab|-2---------------7----------------|
    Eb|-0--------------------------------|

    eb|--------------------------------------|
    Bb|--------------------------------------|
GTR Gb|-10\9---------------10\9--14\13-13\10-|
 1  Db|-------10/12-12/14--------------------|
    Ab|--------------------------------------|
    Eb|--------------------------------------|

    eb|--------------------------------------|
    Bb|--------------------------------------|
GTR Gb|-10\9---------------10\9--14\13-13\10-|
 1  Db|-------10/12-12/14--------------------|
    Ab|--------------------------------------|
    Eb|--------------------------------------|

    eb|--------------------------------------|
    Bb|--------------------------------------|
GTR Gb|--------------------------------------|
 2  Db|--------------------------7--6--6--3--|
    Ab|--------------------------7--6--6--3--|
    Eb|--------------------------5--4--4--1--|

    eb|-------------------------------|
    Bb|-------------------------------|
GTR Gb|-------------------------------|
 1  Db|-3--2--5-7--7-9--3-2--7-6--6-3-| x4
    Ab|-3--2--3-5--5-7--3-2--7-6--6-3-|
    Eb|-1--0------------1-0--5-4--4-1-|

    eb|-----------------------------------|
    Bb|-----------------------------------|
GTR Gb|----------------------14\13--13\10-|
 2  Db|-3--2--5-7--7-9--3-2---------------| x4
    Ab|-3--2--3-5--5-7--3-2---------------|
    Eb|-1--0------------1-0---------------|

    eb|--------------------------------------|
    Bb|--------------------------------------|
GTR Gb|-10\9---------------10\9--14\13-13\10-|
 1  Db|-------10/12-12/14--------------------| x4
    Ab|--------------------------------------|
    Eb|--------------------------------------|

    eb|--------------------------------------|
    Bb|--------------------------------------|
GTR Gb|--------------------------------------|
 2  Db|-7\6----------7\6--11\10--10\7--------| x4
    Ab|-----7/9-9/11-------------------------|
    Eb|--------------------------------------|

Play over solo:

    eb|--------------------------------------|
    Bb|--------------------------------------|
GTR Gb|-10\9---------------10\9--14\13-13\10-|
 1  Db|-------10/12-12/14--------------------| x4
    Ab|--------------------------------------|
    Eb|--------------------------------------|

    eb|--------------------------------------|
    Bb|--------------------------------------|
GTR Gb|--------------------------------------|
 2  Db|-7\6----------7\6--11\10--10\7--------| x4
    Ab|-----7/9-9/11-------------------------|
    Eb|--------------------------------------|

Solo

    eb|---------------------------------------------------|
    Bb|-13-12-12GBU-13-12-13p12p10-12p10p9-10p9p8-9p8p6-5-|
GTR Gb|---------------------------------------------------|
 3  Db|---------------------------------------------------|
    Ab|---------------------------------------------------|
    Eb|---------------------------------------------------|

GBU = GRADUAL BEND UP

    eb|---------------------------|
    Bb|---------------------------|
GTR Gb|-7-9-10-9-7----7------9----|
 3  Db|------------10---10-9------|
    Ab|---------------------------|
    Eb|---------------------------|

    eb|-------------------------------------|
    Bb|-------12-13-12----------13-15-13----|
GTR Gb|----13----------13----13----------14-|
 3  Db|-14----------------14----------------|
    Ab|-------------------------------------|
    Eb|-------------------------------------|

    eb|-------------------------------------------|
    Bb|-------12-13-12----------13-15-13-18-17----|
GTR Gb|----13----------13----13-------------------|
 3  Db|-14----------------14----------------------|
    Ab|-------------------------------------------|
    Eb|-------------------------------------------|

    eb|----------------------------------------------------|
    Bb|-15-17-21BU(22)-21BU(22)-21BU(22)-21BU(22)-21p20p17-|
GTR Gb|----------------------------------------------------|
 3  Db|----------------------------------------------------|
    Ab|----------------------------------------------------|
    Eb|----------------------------------------------------|

    eb|-17tr19-19BU-10p9p7-9p7p6-7p6---6----------------------|
    Bb|------------------------------8---8-7-8-5-8-5-7--------|
GTR Gb|-------------------------------------------------------|
 3  Db|-------------------------------------------------------|
    Ab|-------------------------------------------------------|
    Eb|-------------------------------------------------------|
Добавлено: 26.07.2013
Вам также может быть интересно:
Другие материалы по этой песне:
  • Аккорды и текст

Страница создана 26.07.2013
http://primanota.ru/creatures/illusive-faults-chords.htm
Привет, Гость.
Предлагаем пройти революционный курс по гитаре.
Подарок от PrimaNota.Ru, забирай!