PrimaNota.ru - самый крупный в мире бесплатный архив песенных текстов, аккордов, табулатур и нот


Creaming Jesus - Lillies - таба, видео

Регистрация Запомнить меня
Войти через:  Facebook Google Twitter Vk Yandex Mail.ru

Creaming Jesus - Lillies - таба, видео

Печатать
Просмотров: 77
Creaming Jesus - lillies (off Guilt by Association)

Tab by Anthony Swart (anthony.swart@blueyonder.co.uk)

Intro/verse riff
play this palm muted with loads of delay and/or reverb

       E                      F
e|-----------------|-------------------------|
B|-----------------|-------------------------|
G|-9-9-9-9-9-9-9-9-|-10-10-10-10-10-10-10-10-|
D|-9-9-9-9-9-9-9-9-|-10-10-10-10-10-10-10-10-|
A|-7-7-7-7-7-7-7-7-|-8--8--8--8--8--8--8--8--|
E|-----------------|-------------------------|

        E                F          G
E|-----------------|-------------------------|
B|-----------------|-------------------------|
G|-9-9-9-9-9-9-9-9-|-10-10-10-10-/12-12-12---|
D|-9-9-9-9-9-9-9-9-|-10-10-10-10-/12-12-12---|
A|-7-7-7-7-7-7-7-7-|-8--8--8--8--/10-10-10---|
E|-----------------|-------------------------|

again with bass + drums x2



Riff 1
E|---------------------|---------------------|
B|---------------------|---------------------|
G|-9-----------------9-|-10-------12---------|
D|-9-----------------9-|-10-------12---------|   X4
A|-7-----------------7-|-8--------10---------|
E|---------------------|---------------------|

on 1st and 3rd time play this
Riff 2
E|------------------|-----12----13----15------|
B|-/12--------------|-12----12----12----12----|
G|------------------|-------------------------|
D|------------------|-------------------------|
A|------------------|-------------------------|
E|------------------|-------------------------|


All that is real....
verse/intro riff  X2

All you desire.....
riff 1 and riff 2  X2


die like a lilly .....
Riff 1 x4

Riff 1 and Riff 2  X 2

then do verse 2
All you desire...
die like a lilly in the water....

verse riff X6

solo (over | E | F G |  - riff 1)
not sure about the solo but this sounds OK.

     whammy bar ~~~~~~~~~~~~~~~~~~~~~~~~~
E|------------|--------------|----------|
B|------------|--------------|-12-14-10-|
G|------------|-12-----------|----------|
D|---12-------|-12-----------|----------|
A|------------|--------------|----------|
E|------------|--------------|----------|

-----------------------------------------|
---------------------------^--V----^---V-|
---------------------9-11-12-12-11-12-12-|
--------------9-10-12--------------------|
-------9-10-12---------------------------|
--10-12----------------------------------|

                                ^   V        ^  V
E|------------------------10-12-12-12--10-12-12-12-|
B|----------------10-12-14-------------------------|
G|---------9-11-12---------------------------------|
D|--9-11-12----------------------------------------|
A|-------------------------------------------------|
E|-------------------------------------------------|
verse riff X2
chorus .....  and some lead stuff similar to the solo...
     
Добавлено: 02.06.2013
Другие материалы по этой песне:
  • Аккорды и текст

Страница создана 02.06.2013
http://primanota.ru/creaming-jesus/lillies-chords.htm
Привет, Гость.
Предлагаем пройти революционный курс по гитаре.
Подарок от PrimaNota.Ru, забирай!