PrimaNota.ru - самый крупный в мире бесплатный архив песенных текстов, аккордов, табулатур и нот


Creaming Jesus - Bathtime For Jim - таба, видео

Регистрация Запомнить меня
Войти через:  Facebook Google Twitter Vk Yandex Mail.ru

Creaming Jesus - Bathtime For Jim - таба, видео

Печатать
Просмотров: 109
Creaming Jesus - Bathtime for Jim  (off Guilt by Association)

Tab by Anthony Swart (anthony.swart@blueyonder.co.uk)

main riff
                 hammer on
E|---------------------------|
B|--12---10---9---9-10-------|
G|----9-----9---9-----9------|
D|---------------------------|
A|---------------------------|
E|---------------------------|
over b

.....
face of the dead boy
staring at you
from every street wall
from every magazine

(bm riff)
E|------------------------|
B|------------------------|
G|------------------------|
D|--9-11-12-11-12-11-9----|
A|--9----------------9----|
E|------------------------|

main riff

......
face of the dead boy on the silver screen
    Bm          D     Bm D
E|-----------------|----------------|
B|-----------------|----------------|
G|-7--7--x-x-x--7--|-7--7--x-x-x--7-|
D|-9--9--x-x-x--7--|-9--9--x-x-x--7-|
A|-9--9--x-x-x--5--|-9--9--x-x-x--5-|
E|-7--7--x-x-x-----|-7--7--x-x-x----|

back to main riff


Five to one baby ....
E|-----------------|----------------|
B|-----------------|----------------|
G|-7--7--x-x-x--7--|-7--7--x-x-x--7-|
D|-9--9--x-x-x--7--|-9--9--x-x-x--7-|
A|-9--9--x-x-x--5--|-9--9--x-x-x--5-|
E|-7--7--x-x-x-----|-7--7--x-x-x----|


Jim, Jim, Jim
bm riff

then goes Bm D till end
E|-----------------|----------------|
B|-----------------|----------------|
G|-7--7--x-x-x--7--|-7--7--x-x-x--7-|
D|-9--9--x-x-x--7--|-9--9--x-x-x--7-|
A|-9--9--x-x-x--5--|-9--9--x-x-x--5-|
E|-7--7--x-x-x-----|-7--7--x-x-x----|

     
Добавлено: 22.08.2013
Вам также может быть интересно:
Другие материалы по этой песне:
  • Аккорды и текст

Страница создана 22.08.2013
http://primanota.ru/creaming-jesus/bathtime-for-jim-chords.htm
Привет, Гость.
Предлагаем пройти революционный курс по гитаре.
Подарок от PrimaNota.Ru, забирай!