PrimaNota.ru - самый крупный в мире бесплатный архив песенных текстов, аккордов, табулатур и нот


Cream - Spoonful Live - таба, видео

Регистрация Запомнить меня
Войти через:  Facebook Google Twitter Vk Yandex Mail.ru

Cream - Spoonful Live - таба, видео

Печатать
Просмотров: 40
-----------------------------------------------------------------
                        Spoonful - Cream
-----------------------------------------------------------------

Tabbed By : Aeonoptic
e-mail: aeonoptic@gmail.com

Tuning: EADGBe

The entire song is over one big E major chord

E|-------------------------------------|--------------------------------------|---------0----0|
B|-------------------------------------|--------------------------------------|---------0----0|
G|------12~-12-------12~-12------------|------12~-12-------12~-12-------12~-12|--------------0|
D|12h14--------12h14--------12h14------|12-14--------12-14--------12-14-------|-12-14\--------|
A|--------------------------------12-14|--------------------------------------|---------------|
E|-------------------------------------|--------------------------------------|-----------3b--|

E|-------------------0|----------------0--------|0----------------0-0---0|---------------------|
B|--------------------|-------------------------|0------------------5~--0|---------------------|
G|--------------------|------0h1p0h1p0----------|------------------------|--------2br4p0-------|
D|--------------------|---2---------------------|------------------------|-----2---------2-----|
A|--------------------|-------------------------|------------------------|---------------------|
E|3b-0--0-3b-0---3b---|3b-----------------3b-0-0|--3b-0--3b-0--3b--------|0-3b-------------3b-0|

It might fill spoons full of diamond
It might fill spoons full of gold
But just a little spoon of your precious love
Would satisfy my soul

E|----------------------------15b|-----0---3h5p3----------|-------------------------|-------------------------|
B|---------------15b17~-15b17----|-----0---------5p3------|------------3-0---0------|/3-3-3-/3-3-3-/3-3-3-----|
G|-------------------------------|--------------------2---|--------1~------2---0h1--|/4-4-4-/4-4-4-/4-4-4-2p1b|
D|-------------------------------|----------------------5b|---2--2-----------------2|-------------------------|
A|-------------------------------|------------------------|-------------------------|-------------------------|
E|3b-0--3b-0--0------------------|12\---------------------|3b-----------------------|-------------------------|

People you're lying about it
Going around and crying about it
Everything's a lying about
Everybody's a-fightin' about a
Spoonful, Spoonful, Spoonful
 
E|0------------0|---------------------0|---------------------|--------------|-------0--------------|
B|0------------0|---------------------0|---------------------|--------------|-------0--------------|
G|--------------|------2br4p0----------|------2br4p0---------|--------------|--------------2br4p0--|
D|-----2--------|---2---------2--------|---2---------2------2|0h2--0--------|------------2--------2|
A|--------------|----------------------|---------------------|-------0------|----------------------|
E|--3b----3b-0--|3b--------------3b-0--|3b-------------3b-0--|----------3b-0|3b-0-0---3b-----------|

E|-----0-------------------------0|-------------------------0|-----------------|---------------------------|
B|-----0-------------------------0|-------------------------0|-----------------|---------------------------|
G|-----------------2br4p0---------|----------2br4p0----------|-----------------|---------------------------|
D|---------------2--------2-------|-------2---------2--------|----/2-2-2-/2-2-2|/2-2-2-/2-2-2-/2-2-2-/2-2-2|
A|--------------------------------|--------------------------|-----------------|---------------------------|
E|3b-0----0-0-3b------------3b-0--|0-0-3b--------------3b-0--|0-0--------------|---------------------------|

E|-------------------|--------------|--------------------|----------------|
B|------------------x|--------------|--------------------|----------------|
G|------------------x|--------------|--------------------|----------------|
D|0h2-0--------------|-------------2|-------------------2|----------------|
A|------2-0----------|--------------|--------------------|----------------|
E|----------3b-0-3b--|0-3b-0--0-3b--|3b-0--3b-0--7\5-3b--|3b-0--3b-0--3b-0|

It might fill spoons full of coffee
Fill spoons full of tea
But just a little spoon of your precious love
Is good enough for me

E|----------------|-----------12-10--12~~|----------15b17--15-17--15b17--12h15p12~|
B|----------------|------/12-------------|----------------------------------------|
G|----------------|----------------------|----------------------------------------|
D|----------------|----------------------|----------------------------------------|
A|7-10b-7--7-10b-7|7-10\-----------------|----------------------------------------|
E|----------------|----------------------|3b-0--3b--------------------------------|

E|---------------------------|------|7-7--7-7--7-7---9-7|
B|-------/3-3-3-3-3-3-3-3-3-3|3-----|8-8--8-8--8-8--10-8|
G|-------/4-4-4-4-4-4-4-4-4-4|4-----|-------------------|
D|---2-----------------------|------|-------------------|
A|---------------------------|------|-------------------|
E|3b---0---------------------|------|-------------------|

You're lying about it
Going round and cryin'
Fightin' and dyin' about a spoonful
Everything's a-lying about a spoonful
Spoonful
Spoonful
Spoonful ey, Spoonful ey
Spoonful agh

E|----------------------|---------------------0|-------------------|-------------------0|
B|----12-12------------x|---------------------0|------------------x|-------------------0|
G|9~-------------------x|----------------------|------------------x|-----2br4p2---------|
D|-----------2-0-------x|-----2-------0--------|---2-------0------x|---2--------2-------|
A|---------------2------|--------0h2~----------|------0h2~---------|--------------------|
E|-----------------3b---|0-3b------------3b-0--|3b-----------3b-0--|3b------------3b-0--|

E|---------------------------|-----0-----------------|--------------------0|---------------------------------|
B|---------------------------|-----0-----------------|--------------------0|---------------------------------|
G|---------------------------|-----------------------|---------------------|---------------------------------|
D|----/2-2-2-2-2-2-2-0---0h2~|-----------/2-2-2-2-2-2|0h2-2-0--------------|/2-2-2-2-2-2-2-0--------------2~~|
A|---------------------2-----|-----------------------|--------2-0----------|-----------------2-0-------------|
E|0-0------------------------|3b-0---0-0-------------|------------3--3b-0--|---------------------3b-0-3b-0---|

  Solo
E|-------------------------|-----------|------------------------0|-------------------------0|
B|-------------------------|---------x-|------------------------0|-------------------------0|
G|-------------------------|---------x-|----------2br4p0---------|----------2br4p0----------|
D|/2-2-2-2-2-2-0h2-0-------|-----2~--x-|-----------------2-------|-------2---------2--------|
A|-------------------2-0---|-----------|-------------------------|--------------------------|
E|-----------------------3b|3b-0-------|0-3b-0--0----------3b-0--|0-0-3b--------------3b-0--|

E|------------------------0|------------------------0|----------0----|-----0---------------|
B|------------------------0|------------------------0|-----/3-----3--|/3-----3-------------|
G|----------2br4p0---------|----------2br4p0---------|-----/4-4-----4|/4-4-----2/4-1h2p1---|
D|-------2---------2-------|-------2---------2-------|---------------|-------------------2~|
A|-------------------------|-------------------------|---------------|---------------------|
E|0-0-3b-------------3b-0--|0-0-3b-------------3b-0--|0-0------------|---------------------|

E|0------|---------------|---------------0|----------------|--------------------|--0-----------------|
B|-------|---------------|----------------|----------------|--------------------|3---3---------------|
G|---2b4~|2b4-2b4-2b4-2b4|2b4-2b4-2br4p0--|2br4-1h2-2p0----|---------1h2p1-2/4~~|------4\2--1-2p1-2b4|
D|-------|---------------|----------------|-------------2--|0h2--0h2------------|--------------------|
A|-------|---------------|----------------|----------------|--------------------|--------------------|
E|-------|---------------|----------------|---------------0|--------------------|--------------------|

E|--------------------|-----0------------|------------------------|-----------------|--------------------|
B|--------------------|---3--------------|--------3---------------|--------------3-5|---3-5-----3-5-5~---|
G|0h2-0h2--0h2p0------|/4-----4\2-0-2----|0h2-2/4-4--4\2-0--------|----0------/4----|/4------/4----------|
D|---------------2~---|---------------2--|-----------------2-0-2--|0h2----2---------|--------------------|
A|--------------------|------------------|------------------------|-----------------|--------------------|
E|-------------------0|-----------------0|-----------------------0|---------0-------|-------------------0|

E|------------------------|--------------------------|--------------------|----------------------|
B|----/3-/3-/3------------|---------------3----------|--------------------|----------------------|
G|----/4-/4-/4-4\2-0-2----|-------0h2-2/4---4\2-0----|----0-2-0-----------|----------------------|
D|0h2--------------------2|---0h2-----------------2--|0h2-------2-0h2-5b-2|0-2--0-2-0-2-----0-2--|
A|------------------------|--------------------------|--------------------|-------------0-2------|
E|---------------------0--|0------------------------0|--------------------|---------------------0|

E|----------------------|---------------------------|--------------------------------------|
B|-----------3-5-3-5~~--|-----3---3-----------------|/3-3-3--/3-3-3--/3-3-3----------------|
G|-----0-2/4------------|2h4--2h4-2h4-4\2-0---------|/4-4-4--/4-4-4--/4-4-4-4\2-0-2---0-2--|
D|0-2-------------------|-------------------2-0-2---|-------------------------------2-----2|
A|----------------------|---------------------------|--------------------------------------|
E|---------------------0|--------------------------0|--------------------------------------|

E|---------12-12-------12-12-------12-12|------12--------------|-----------------------|----------------|
B|---15b17-------15b17-------15b17------|15b17-----15-12-------|---/3-3-3-/3-3-3-/3-3-3|----------------|
G|--------------------------------------|----------------14-12~|---/4-4-4-/4-4-4-/4-4-4|4\2-0-2---0-2---|
D|--------------------------------------|----------------------|-----------------------|--------2-----2~|
A|--------------------------------------|----------------------|-----------------------|----------------|
E|0-------------------------------------|----------------------|0----------------------|----------------|

E|---------12-12-------12-12-------12-12|------12-12----------------------------|
B|---15b17-------15b17-------15b17------|15b17-------15b17-15-12----------------|
G|--------------------------------------|------------------------14b16-14-12----|
D|--------------------------------------|------------------------------------14~|
A|--------------------------------------|---------------------------------------|
E|0-------------------------------------|---------------------------------------|

E|-----------------------------|-------------------------------------|---------12----------12------------------|
B|--/3-3-3-/3-3-3-/3-3-3-/3-3-3|-------------------------------------|------12----------12----15-12------------|
G|--/4-4-4-/4-4-4-/4-4-4-/4-4-4|4\2-0-2---0-2-----14b16-14pb16-14pb16|14b16-------14b16-------------14b16-14-12|
D|-----------------------------|--------2-----2----------------------|-----------------------------------------|
A|-----------------------------|-------------------------------------|-----------------------------------------|
E|0----------------------------|----------------0--------------------|-----------------------------------------|

E|--------------------------|----------------------------|-------------------------|
B|--------------------------|---------------/8-8-8-/8-8-8|-------------------------|
G|14-12-14--14-12-----------|----7---9-7----/9-9-9-/9-9-9|7/9-7--------------------|
D|----------------14--------|7/9---9-----9---------------|------9-7----------------|
A|--------------------------|----------------------------|----------10-7--10b------|
E|-------------------12--0-0|----------------------------|--------------------0-0-0|

E|---------------------------|----------------|---------------------------|----------------------------|
B|/8-8-8-/8-8-8-/8-8-8-/8-8-8|----------------|/8-8-8-/8-8-8-/8-8-8-/8-8-8|---------------/8-8-8-/8-8-8|
G|/9-9-9-/9-9-9-/9-9-9-/9-9-9|7/9-7-----------|/9-9-9-/9-9-9-/9-9-9-/9-9-9|7/9-7----------/9-9-9-/9-9-9|
D|---------------------------|------9-7-------|---------------------------|------9-7-------------------|
A|---------------------------|----------10-7-7|---------------------------|----------10-7--------------|
E|---------------------------|----------------|---------------------------|----------------------------|
  
E|---------------------------|-----------------------12-12-12|------12-12-------12-12-------12-12-------12-12|
B|/8-8-8-/8-----/8-8-8-/8-8-8|-----------------15b17---------|15b17-------15b17-------15b17-------15b17------|
G|/9-9-9-/9-9-9-/9-9-9-/9-9-9|7/9-7--------------------------|-----------------------------------------------|
D|---------------------------|------9-7----------------------|-----------------------------------------------|
A|---------------------------|----------10-7-----------------|-----------------------------------------------|
E|---------------------------|---------------0---------------|-----------------------------------------------|

E|-----------------------------|-----------------------------------|-------------------------------|
B|15b17-15-12------------------|12-14-15-14-12----12-14-15-14-12---|12-14-15-14-12-----------------|
G|------------14b16-12---------|12-14-15-14-12----12-14-15-14-12---|12-14-15-14-12-----14-12-------|
D|---------------------14-14-14|---------------14----------------14|---------------14--------14-14~|
A|-----------------------------|-----------------------------------|-------------------------------|
E|-----------------------------|-----------------------------------|-------------------------------|

E|------------------------------------------------|----------------------------------------|
B|------17-17-------17-17-------17-17-------------|------------------12h15p12--------------|
G|19b21-------19b21-------19b21-------19br21-19b21|19b21-19--19br21-----------12-14----12~~|
D|------------------------------------------------|---------------------------------14-----|
A|------------------------------------------------|----------------------------------------|
E|------------------------------------------------|----------------------------------------|

E|-----------------------------12-------|12--------------------------------|-----------------------------------|
B|--------------------------12----15b17~|---15-12--------------------------|-------15~----------15~------------|
G|------12-14----12--14b16--------------|---------14b16-14-12-14----12~----|14/16~-----16~-16~------16~-16~-16~|
D|12-14-------14------------------------|------------------------14------14|-----------------------------------|
A|--------------------------------------|----------------------------------|-----------------------------------|
E|--------------------------------------|----------------------------------|-----------------------------------|

E|-------------------------------|-------------------------------------|-----------------------------|
B|/15-15~--15/17-15/17~--15----15|-------------------------------------|8-6-8-8-6-8------------------|
G|/16-----------------------16---|16\14-12-14--------12-14/16-14-12----|9-7-9-9-7-9--2-0-2--0---2/9~~|
D|-------------------------------|------------14--14----------------14~|----------------------2------|
A|-------------------------------|-------------------------------------|-----------------------------|
E|-------------------------------|-------------------------------------|-----------------------------|


E|-------------------|--------------------------------------------|-----------------------------------|
B|--------17-15b17~~~|17-15-----------------------------17-15b17~~|17-15h17----15---------------------|
G|9/13-16------------|------14b16-12-14--------12-14/16-----------|---------16----12h14----12-14-12---|
D|-------------------|------------------14--14--------------------|---------------------14----------14|
A|-------------------|--------------------------------------------|-----------------------------------|
E|-------------------|--------------------------------------------|-----------------------------------|

E|-------------------------------12|-------------------------------------------------------|
B|------------------/8--------12---|15p12-----12-15p12-----12-15p12-------12-15p12-------12|
G|------------------/9-----13------|------14b----------14b----------14b16----------14b16---|
D|----------------------14---------|-------------------------------------------------------|
A|12\10-12----10-------------------|-------------------------------------------------------|
E|---------12----12----------------|------------------------------------------------------- |

E|------------------------------------|-----------------------|-----------------------|
B|15p12-------------------------------|-----------------------|-----------------------|
G|------14b-12-14-12-14----12-14-12---|12-14-12----12-14-12---|12-14-12----12-14-12---|
D|----------------------14----------14|---------14----------14|---------14----------14|
A|------------------------------------|-----------------------|-----------------------|
E|------------------------------------|-----------------------|-----------------------|

E|--------------------------|
B|--------------------------|
G|12-14p12----12------------|
D|---------14----14p12----12|
A|---------------------14---|
E|--------------------------|

E|-----------------------------|------------------------------------|--------------------------|
B|-----------------------------|------------------------------------|15b17-15b17-15b17-15b17~~~|
G|-----------------------------|---------12-14-15-14-12-14----12~---|--------------------------|
D|14p12----12-14p12----12-12-14|---12-14-------------------14-----14|--------------------------|
A|------14----------14---------|14----------------------------------|--------------------------|
E|-----------------------------|------------------------------------|--------------------------|

E|-------------------------|------------------------|----------------------------|-------------------------|
B|12-15----12--------------|------------------------|----------------------------|-------------------------|
G|------14----12-14-12b~---|----------9----9-12----9|12p9----9-12b14-12b14-12-9~-|9-7----------------------|
D|-----------------------14|-----9h11---11------11--|-----11---------------------|----9-8-7-----7----------|
A|-------------------------|------------------------|----------------------------|----------10b---7-10b-7--|
E|-------------------------|0-0---------------------|---------------------------0|------------------------0|
                           
E|------------------------|------------------------------| |---------------------------|
B|------------------------|------------------------------| |---------------------------|
G|------------------------|------------------------------| |---------------------------|
D|------------------------|---------------2-2-2-2-2-2-2-2| |--2-2-2-2-2-2-2-2-2-2-2-2-2|
A|---10-11-12----10-12----|------------------------------| |---------------------------| x3
E|12----------12-------12~|0--0-0-0-0-0-0----------------| |0--------------------------|

E|----------------------------------------------|------------------------------------|-------------------|
B|----------------------------------------------|--------8-------8--/8-8-8-8-/8-8-8-8|/8-8-8-8-/8-8-8-8--|
G|----------------------------------------------|-------------------/9-9-9-9-/9-9-9-9|/9-9-9-9-/9-9-9-9-9|
D|2/9--12-14-14--12-14-14-14--12-14-14-----12-14|--9-9-9---9-9-9---------------------|-------------------|
A|--------------------------------------14------|------------------------------------|-------------------|
E|----------------------------------------------|0-----------------------------------|-------------------|

E|-0---0---0--|
B|------------|
G|---9---9---9|
D|------------|
A|------------|
E|------------|

E|----0---0---0--|-----------------------|--------------------------|-----------------------------|
B|---------------|----8---7-10br12-10-8--|8-8-8-8-8-8-7-10b12-10-7--|8-8-8-8-8---8-10-10b12-10-8--|
G|--9---9---9---9|7-9---9---------------9|7-9-7-9-7-9--------------9|7-9-7-9---9-----------------9|
D|---------------|-----------------------|--------------------------|-----------------------------|
A|---------------|-----------------------|--------------------------|-----------------------------|
E|0--------------|-----------------------|--------------------------|-----------------------------|

E|---------------------------------|--------------------------------|-------------------------------|
B|8-8-8-8-8---8-10-10b12-10-8---8--|---------12b-----------12b------|------12b-------------12b------|
G|7-9-7-9---9-----------------9---9|---------12b-----------12b------|------12b-------------12b------|
D|---------------------------------|12-14-14-----14--12-14-----14---|12-14-----14----12-14-----14---|
A|---------------------------------|------------------------------14|-------------14--------------14|
E|---------------------------------|--------------------------------|-------------------------------|

E|--------------------------------|----------------------------------|-----------------------------|
B|------12b--------------12b------|----------------------------------|15br17-----------------------|
G|------12b--------------12b------|------12~-------------12~---------|-------12~--------------12---|
D|12-14-----14-----12-14-----14---|12-14-----14-------12-----14p12---|------------14----12-14----14|
A|-------------14---------------14|-------------14-14--------------14|---------------14------------|
E|--------------------------------|----------------------------------|-----------------------------|

E|------------------------------12|-----------------------|------------12------------------|-------------------|
B|15br17-12~--------------------12|15b17-15b17-15b17-15b17|15b17-15b17----12---------------|-------------------|
G|------------14-12----12-14-12---|-----------------------|------------------14----12h14---|12-14-12-----------|
D|------------------14------------|-----------------------|---------------------14-------14|--------14----12-14|
A|--------------------------------|-----------------------|--------------------------------|-----------14------|
E|--------------------------------|-----------------------|--------------------------------|-------------------|

E|-----------------------------|-----------------------------------|------------------------|
B|------------12---------------|12----------------12---------------|------------------------|
G|12-14----12----12h14p12----12|---12h14p12----12----12h14p12----12|---12-14-15-14-12----12~|
D|------14----------------14---|------------14----------------14---|14----------------14----|
A|-----------------------------|-----------------------------------|------------------------|
E|-----------------------------|-----------------------------------|------------------------|

E|-----------------------|
B|---------12------------|
G|---12-------12h14p12---|
D|14----14-------------14|
A|-----------------------|
E|-----------------------|
 
E|---------12----------12----------12-------12---------------------|-----------------------|
B|------12----------12----------12-------------15-12---------------|15-15-15-15-15-15-15-15|
G|14b16-------14b16-------14b16-------14b16----------14b16-14-12---|16-16-16-16-16-16-16-16|
D|---------------------------------------------------------------14|-----------------------|
A|-----------------------------------------------------------------|-----------------------|
E|-----------------------------------------------------------------|-----------------------|

E|-----------------------|
B|15-15-15-15-15-15-15-15|
G|16-16-16-16-16-16-16-16|
D|-----------------------|
A|-----------------------|
E|-----------------------|

E|-----------------------|-----------------------|-----------------------|
B|15-15-15-15-15-15-15-15|15-15-15-15-15-15-15-15|15-15-15-15-15-15-15-15|
G|16-16-16-16-16-16-16-16|16-16-16-16-16-16-16-16|16-16-16-16-16-16-16-16|
D|-----------------------|-----------------------|-----------------------|
A|-----------------------|-----------------------|-----------------------|
E|-----------------------|-----------------------|-----------------------|

E|------15-15-------15-15-12/15-12---------------|
B|15b18-------15b18----------------15-12---------|
G|---------------------------------------12------|
D|------------------------------------------14-14|
A|-----------------------------------------------|
E|-----------------------------------------------|

E|--------------------------------|--------------------------------|-----------------------------|
B|---12-14-15-12----12-14-12------|---12-14-15-12----12-14-12------|12-14-15-14-12----12----12---|
G|---12-14-15-12----12-14-12------|---12-14-15-12----12-14-12------|12-14-15-14-12----12----12---|
D|14-------------14----------14-14|14-------------14----------14-14|---------------14----14----14|
A|--------------------------------|--------------------------------|-----------------------------|
E|--------------------------------|--------------------------------|-----------------------------|

E|-----------------------------|-----------------------------------|
B|12----12---------------------|15b17-15b17-15b17-15b17-15b17-15b17|
G|12----12----12-14-15-14-12---|-----------------------------------|
D|---14----14----------------14|-----------------------------------|
A|-----------------------------|-----------------------------------|
E|-----------------------------|-----------------------------------|

E|--------------------------------------------------|
B|15b17-15-15b17-15-15b17-15b17-15-12---------------|
G|------------------------------------14b16-14-12---|
D|------------------------------------------------12|
A|--------------------------------------------------|
E|--------------------------------------------------|

E|-------------12---------------------------|----------------------------|
B|---------12-----15p12----12---------------|----------------------------|
G|---12-13--------------14----14p12----12---|----------------------------|
D|14--------------------------------14----14|----/12-12--12-12-12----12--|
A|------------------------------------------|----/14-14--14-14-14-14-----|
E|------------------------------------------|0-0------------------------0|

E|--------------------------------------------|
B|--------------------------------------------|
G|--------------------------------------------|
D|14-14p12----12--14p12----14p12----12--------|
A|---------14-----------14-------14----14-12--|
E|-------------------------------------------0|

E|--------------------------------|-----------------------------------------|----------3b----3--5/7-5-3-5-3---|
B|------/8-8-8-8-8-8-8\3-3-3-3-3-3|3-3-3-5p3---3-7b9-7pb9-7pb9-3-5-3-3/5-5-3|3-5-3-5-5----5~----------------5~|
G|------/9-9-9-9-9-9-9\4-4-4-4-4-4|4-4-------4------------------------------|---------------------------------|
D|--------------------------------|-----------------------------------------|---------------------------------|
A|--------------------------------|-----------------------------------------|---------------------------------|
E|0-0-0---------------------------|-----------------------------------------|---------------------------------|

E|3-5b7-5-3-5-3-3-3---------3-x-x-3-3|x----------------------|----------------------------|
B|------------------5~~-3-5---x-x-5-5|x-3-3-3-3-3-3----------|-----------------------3-5p3|
G|----------------------------x-x----|--2-4-2-4-2-4-2-0------|0-0-0-0-0-0-0-0-0--2/4------|
D|-----------------------------------|------------------2----|2-2-2-2-2-2-2-2-2-----------|
A|-----------------------------------|-----------------------|----------------------------|
E|-----------------------------------|--------------------0-0|----------------------------|

E|----------------------------|
B|----3-5p3-----3-5p3---------|
G|2/4-------2/4--------2b4-0--|
D|---------------------------2|
A|----------------------------|
E|----------------------------|

E|--------------------------------|--------------------------------|----------------------|
B|/3-3-3-3-/3-3-3-3-/3-3-3-3------|/3-3-3-3-/3-3-3-3-/3-3-3-3------|3/5-5-5--5-3----------|
G|/4-4-4-4-/4-4-4-4-/4-4-4-4-2----|/4-4-4-4-/4-4-4-4-/4-4-4-4-2----|-------------4-2-0----|
D|-----------------------------5-2|-----------------------------5-2|-------------------2--|
A|--------------------------------|--------------------------------|----------------------|
E|--------------------------------|--------------------------------|---------------------0|

E|-------------------------|-----------------------|-----------------------|-----------------------|
B|3/5-5-5-5-5-5-5-5-5-5-5-5|5-5-5-5-5-5-5-5-5-5-5-5|5-5-5-5-5-5-5-5-5-5-5-5|5-5-5-5-5-5-5-5-5-5-5-5|
G|-------------------------|-----------------------|-----------------------|-----------------------|
D|-------------------------|-----------------------|-----------------------|-----------------------|
A|-------------------------|-----------------------|-----------------------|-----------------------|
E|-------------------------|-----------------------|-----------------------|-----------------------|

E|-----------------------|-----------------------|-------|-----------------|-----------|--------3/12-3-----|
B|5-5-5-5-5-5-5-5-5-5-5-5|5-5-5-5-5-5-5-5-5-5-5-5|-------|3/5-5-5-5-5-5-5-5|3/5-5-5-5--|5-5-5-5--------5-5~|
G|-----------------------|-----------------------|-------|-----------------|-----------|-------------------|
D|-----------------------|-----------------------|-------|-----------------|-----------|-------------------|
E|-----------------------|-----------------------|0------|-----------------|----------0|-------------------|

E|3h5---3h5---3~--|--------3~------------------|--------------3-5---3-5---|-------3/5-5-3---3-5---|
B|----5-----5----5|3-5-3-5----5---3-5-3-5-3-5-3|----5~--5-3-5-----5-----5~|---3-5---------5-----5~|
G|----------------|----------------------------|--------------------------|-----------------------|
D|----------------|----------------------------|--------------------------|-----------------------|
A|----------------|----------------------------|--------------------------|-----------------------|
E|----------------|-------------0--------------|0-------------------------|0----------------------|

E|-----------------|---------------|---------------|3~~----------3-5---3-5|3-5b7-5---5---3~--3--------|
B|------3-5-3-5-3-5|3-5-3-5-3-5-3-5|3-5-3-5-3-5-3-5|----5----3-5-----5----|--------5---5-------5---5--|
G|-----------------|---------------|---------------|-------4--------------|----------------------4----|
D|-----------------|---------------|---------------|----------------------|---------------------------|
A|-----------------|---------------|---------------|----------------------|---------------------------|
E|0-0-0------------|---------------|---------------|----------------------|--------------------------0|

E|-----------------------------|-------------|-----------------|-----------------------|-----------------------|
B|3/5-5-5-3--------------------|-------------|-----------------|-----------------------|-----------------------|
G|----------4-2-0-2-0---0-2-0--|0-2-0-2-0----|-----------------|-----------------------|-----------------------|
D|--------------------2-------2|----------2--|--2---2---2------|2-2-2-2-2-2-2-2-2-2-2-2|2-2-2-2-2-2-2-2-2-2-2-2|
A|-----------------------------|-------------|-----------------|-----------------------|-----------------------|
E|-----------------------------|------------0|0---0---0---0-0-0|-----------------------|-----------------------|

E|-------------------------------|-------------------------|-------------------------|--------------3-5-3---3--|
B|3/5-5-5-3/5-5-5-3/5-3----------|3/5-5-5-5-5-3/5-3--------|3/5-5-5-5-5-5-5-3--------|3/5-5-5-5-5-5-------5---5|
G|----------------------4-2------|------------------4-2----|------------------4-2----|-------------------------|
D|--------------------------5-2-2|----------------------5-2|----------------------5-2|-------------------------|
A|-------------------------------|-------------------------|-------------------------|-------------------------|
E|-------------------------------|-------------------------|-------------------------|-------------------------|
  
E|------------------------------|-----------------------------|-------------------------------------|
B|3/5-5-3/5-5-5--5-5-5-5-5-5-5-5|5-5-5-5-5-5-3-5p3---3--------|3/5-5-5-5-3/5-5-5-5-3-5p3---3-5p3---3|
G|------------------------------|------------------4---2/4-0--|--------------------------4-------4--|
D|------------------------------|----------------------------2|-------------------------------------|
A|------------------------------|-----------------------------|-------------------------------------|
E|------------------------------|-----------------------------|-------------------------------------|

E|-------------------------------------|-------------------------------------|-----------------|
B|3/5-5-5-5-3/5-5-5-5-3-5p3---3-5p3---3|3/5-5-5-5-3/5-5-5-5-3-5p3---3-5/7-7/8|8\7-7/8-8/10-10\8|
G|--------------------------4-------4--|--------------------------4----------|-----------------|
D|-------------------------------------|-------------------------------------|-----------------|
A|-------------------------------------|-------------------------------------|-----------------|
E|-------------------------------------|-------------------------------------|-----------------|

E|------------------------|
B|-------9-7-9------------|
G|-------------7/9-7-9----|
D|---------------------5h7|
A|------------------------|
E|------------------------|

E|------------------------|---------------|---------------|------------------|--------------------------|
B|------------------------|---------------|---------------|------------------|--------------------------|
G|------------------------|---------------|---------------|------------------|--------------------------|
D|--5-7-5-----------------|---------------|---------------|------------------|------------------------2~|
A|7-------5--5-5-5-5-5-5-5|4-5-4-5-4-5-4-5|4-5-4-5-4-5-4-5|4-4--2-2----------|2-2-2---------------------|
E|------------------------|---------------|---------------|----------4-4--5-5|------5-5-5-3b-0--0-3-0---|

E|-----------------|-----------------|-----------------|-----------------|-----------------|-------------|
B|-----------------|-----------------|-----------------|-----------------|-----------------|-------------|
G|-----------------|-----------------|-----------------|-----------------|-----------------|-------------|
D|2-0------2-0-----|2-0------2-0-----|2-0------2-0-----|2-0------2-0-----|2-0------2-0-----|2-0-------2--|
A|-----------------|-----------------|-----------------|-----------------|-----------------|-------------|
E|----3b-0-----3b-0|----3b-0-----3b-0|----3b-0-----3b-0|----3b-0-----3b-0|----3b-0-----3b-0|----3b-0-----|

E|-----|----------------------|--------------------------------|------------------------------------|
B|-----|15-15-----------------|------12-15p12----12------------|------------------------------------|
G|-----|------12-----------12b|14b16----------14----14p12----12|14-15-14-12~~-----------------12b---|
D|2~---|---------14--12-14----|---------------------------14---|---------------14p12----12-14-----14|
A|-----|----------------------|--------------------------------|---------------------14-------------|
E|-----|----------------------|--------------------------------|------------------------------------|

E|---12----12----------12---------------|-----------------------------|---12-12~~--13-15\|
B|12----12----15b17~~-----15p12---------|-----------------------------|12----------------|
G|------------------------------14b16-12|14----12~~-----------------12|------------------|
D|--------------------------------------|---14-------14p12----12-14---|------------------|
A|--------------------------------------|------------------14---------|------------------|
E|--------------------------------------|-----------------------------|------------------|

E|17b19-17b19-17b19-17br19-15|19-15-17---------15b|17b19--15-17------15-17b19-15-17-----15b|
B|---------------------------|---------17~-17~----|-------------17~-----------------17~----|
G|---------------------------|--------------------|----------------------------------------|
D|---------------------------|--------------------|----------------------------------------|
A|---------------------------|--------------------|----------------------------------------|
E|---------------------------|--------------------|----------------------------------------|
 
E|15b17~~--15b17-15b17~--17-15p12----12--------|12-----------------------------------|
B|--------------------------------15----15b17~~|---15--------------------------------| 
G|---------------------------------------------|------14b16-12-14-----/14-14-14-14-14|
D|---------------------------------------------|------------------14-----------------|
A|---------------------------------------------|-------------------------------------|
E|---------------------------------------------|-------------------------------------|

E|-------------------------------|
B|-------------------------------|
G|/14-14-14-14-14-/14-14-14-14-14|
D|-------------------------------|
A|-------------------------------|
E|-------------------------------|

E|-------------------------------------------------------------|--------------------------------------------|
B|-------------------------------------------------------------|--------------------------------------------|
G|14p12----12~--/14-14-14-14-14-/14-14-14-14-14-/14-14-14-14-14|14p12----12--/14-14-14-14-14-/14-14-14-14-14|
D|------14-----------------------------------------------------|------14------------------------------------|
A|-------------------------------------------------------------|--------------------------------------------|
E|-------------------------------------------------------------|--------------------------------------------|

E|----------------------------------|-----------------------------------|-------------------------------|
B|----------------------------------|-------------------------15--15--15|15-15-15-15--17b20-17b20-17b20~|
G|/14-14-14-14-14--14p12----12~-----|---12-13-14-----12h14/16-----16--16|16-16-16-16--------------------|
D|-----------------------14-----14~~|14----------14---------------------|-------------------------------|
A|----------------------------------|-----------------------------------|-------------------------------|
E|----------------------------------|-----------------------------------|-------------------------------|

E|---------------------------|----------------------|---------------|-------------|---------|---------|
B|17brb20-17b20-17b20-17brb20|17brb20~--------------|---------------|-------------|---------|---------|
G|---------------------------|----------------------|---------------|-------------|---------|---------|
D|---------------------------|--------------------2~|---------------|-------------|---------|---------|
A|---------------------------|----------------------|---------------|-------------|---------|---------|
E|---------------------------|---------0--0-0-0-0---|0-0-0-0-0-0-0-0|0-0-0-0-0-0-0|0-0-0---0|0-0-0---0|

E|-----------------------------------------|----------------------------|-----------------------------------|
B|-----------------------------------------|15p12---------------------15|17--------------------17----15b17~~|
G|14br17--12-14-14----12-14----12-14-----12|------14-12-14-----14/16~---|---16\14-12-14-----16----16--------|
D|-----------------14-------14-------14~---|---------------14-----------|---------------14------------------|
A|-----------------------------------------|----------------------------|-----------------------------------|
E|-----------------------------------------|----------------------------|-----------------------------------|

E|12------------------------------------------|---------12----12------------|---------------------------|
B|---15---------------------------------------|------12----15----12---------|---------------------------|
G|------14b16-12-14----12-14-12---------------|14b16----------------12-14---|12-14-14p12----12-14-12~---|
D|------------------14----------14-12---------|---------------------------14|------------14-----------14|
A|------------------------------------14------|-----------------------------|---------------------------|
E|---------------------------------------15-12|-----------------------------|---------------------------|

E|----------------------------|-----------------------|--------------------|--------------------|
B|12h15p12--------------------|12---------------------|--------------------|--------------------|
G|----------14br16p12----12-14|---12-14-12-14----12---|14br16p12--14br16p12|14br16p12--14br16p12|
A|--------------------14------|---------------14----14|--------------------|--------------------|
A|----------------------------|-----------------------|--------------------|--------------------|
E|----------------------------|-----------------------|--------------------|--------------------|

E|--------------------|
B|--------------------|
G|14br16p12--14br16p12|
D|--------------------|
A|--------------------|
E|--------------------|

E|-----------------------------------|--------------------------|------------------------------|
B|-----------------------------------|--------------------------|/15-15--------15--------15~---|
G|14br16p12--14br16p12-14----------12|14----12-14-14b16-14-12---|/16----16--16----16--16-----16|
D|------------------------14-12-14---|---14-------------------14|------------------------------|
A|-----------------------------------|--------------------------|------------------------------|
E|-----------------------------------|--------------------------|------------------------------|

E|--------------------15-12-15|17b19-15-15-----------------------|----------------------------------|
B|17brb20-17-15-17~~----------|------------17~--15-17----15----15|----------------------------------|
G|----------------------------|-----------------------16----16---|16\14-12----12~--------------12-14|
D|----------------------------|----------------------------------|---------14------14----12-14------|
A|----------------------------|----------------------------------|--------------------14------------|
E|----------------------------|----------------------------------|----------------------------------|

E|-------------------|15p12----15p12----15p12~|15p12----15p12----15p12----15p12---|
B|-------------------|------15-------15-------|------15-------15-------15-------15|
G|------12~----------|------------------------|-----------------------------------|
D|---12------14----12|------------------------|-----------------------------------|
A|14------------14---|------------------------|-----------------------------------|
E|-------------------|------------------------|-----------------------------------|

E|15p12----15p12----15p12----15p12---|
B|------15-------15-------15-------15|
G|-----------------------------------|
D|-----------------------------------|
A|-----------------------------------|
E|-----------------------------------|

E|15p12----15p12----15p12----15p12---|15p12----15p12----15p12----15p12---|15p12----15p12----15p12----15p12---|
B|------15-------15-------15-------15|------15-------15-------15-------15|------15-------15-------15-------15|
G|-----------------------------------|-----------------------------------|-----------------------------------|
D|-----------------------------------|-----------------------------------|-----------------------------------|
A|-----------------------------------|-----------------------------------|-----------------------------------|
E|-----------------------------------|-----------------------------------|-----------------------------------|

E|15p12----15p12----15p12----15p12---|15p12----15p12----15-17-15-12|15p12----12-15b17-15-12-12-15-12---|
B|------15-------15-------15-------15|------15-------15------------|------15-------------------------15|
G|-----------------------------------|-----------------------------|-----------------------------------|
D|-----------------------------------|-----------------------------|-----------------------------------|
A|-----------------------------------|-----------------------------|-----------------------------------|
E|-----------------------------------|-----------------------------|-----------------------------------|

E|---12-15----12h15p12----12-15p12----12-15p12----12|15p12----12-15p12----12-15p12----12-15p12----12|
B|15-------15----------15----------15----------15---|------15----------15----------15----------15---|
G|--------------------------------------------------|-----------------------------------------------|
D|--------------------------------------------------|-----------------------------------------------|
A|--------------------------------------------------|-----------------------------------------------|
E|--------------------------------------------------|-----------------------------------------------|

E|15p12-----15b17-15pb17~|15b17-15b17-15b17-15b17|15b17-15b17-15b17-15b17|15b17-15b17-15b17-15b17|
B|------15---------------|-----------------------|-----------------------|-----------------------|
G|-----------------------|-----------------------|-----------------------|-----------------------|
D|-----------------------|-----------------------|-----------------------|-----------------------|
A|-----------------------|-----------------------|-----------------------|-----------------------|
E|-----------------------|-----------------------|-----------------------|-----------------------|

E|------17-17-------17-17|------17-17-------17-19-19|------17-19-19-------17-19-19|------17-19-19--17\---|
B|20b22-------20b22------|20b22-------20b22---------|20b22----------20b22---------|20b22-----------20b22\|
G|-----------------------|--------------------------|-----------------------------|----------------------|
D|-----------------------|--------------------------|-----------------------------|----------------------|
A|-----------------------|--------------------------|-----------------------------|----------------------|
E|-----------------------|--------------------------|-----------------------------|----------------------|

E|-----------------------|--------------------------------|---------------------|
B|/15--------------------|--------------------------------|---------------------|
G|-----12b-------------12|---12-14-15-14-12----12-14-12---|------12-14----12----|
D|---------14-12-14-14---|14----------------14----------14|12-14-------14----14~|
A|-----------------------|--------------------------------|---------------------|
E|-----------------------|--------------------------------|---------------------|

E|-----------------------------------|
B|-----------------------------------|
G|-----------------------------------|
D|12-14-14-12-14-14-12-14-14-12-14-14|
A|-----------------------------------|
E|-----------------------------------|

E|------------------------------------------|----------------------------------|-------------------------|
B|------------------------------------------|----------------------------------|-------------------------|
G|---------------------------12~------------|---12-14----12-14-----------------|12-14-12-----------------|
D|14-14-14-14-14-14-14-14-14-----14p12----12|14-------14-------14--12-14-12-14~|---------14--14--12-14-12|
A|-------------------------------------14---|----------------------------------|-------------------------|
E|------------------------------------------|----------------------------------|-------------------------|

E|---------------------------|---------------------------------------------------|
B|---------------------------|---------------------------------------------------|
G|---------------------------|---------------------------------------------------|
D|---12----12/14--12h14-12h14|12h14p12----12-14-12h14-14--12h14p12----12---------|
A|14----12-------------------|---------14--------------------------14----12------|
E|---------------------------|----------------------------------------------15-12|

E|------------------------------|
B|------------------------------|
G|------------------------------|
D|------------------------------|
A|10b-10-12p10----10-12p10----10|
E|-------------12----------12---|

E|------------------------------------|-----------------------------|-------|
B|------------------------------------|-----------------------------|-------|
G|---------------12-12-12-12-/12-12-12|12-12-12--12-12-12--12-12--12|12~~---|
D|------------12-14-14-14-14-/14-14-14|14-14-14--14-14-14--14-14--14|14~~---|
A|---10-12/14-------------------------|-----------------------------|-------|
E|12----------------------------------|-----------------------------|-------|


E|-------------------------------------------|-----------------------------------------|------------|
B|-------------------------------------------|-----------------------------------------|------------|
G|-------------------------------------------|-----------------------------------------|------------|
D|12-12-12-14--12-12-14-12-------------------|-----------------------------------------|------------|
A|12-14-12-12--12-14-12-12-14\12-10~---------|10-12/14-12-10-12----10-12-12-10-12-10---|12-10-------|
E|-----------------------------------12-10-12|------------------12-------------------12|------12-12\|


E|------|------|------|-----|-----|-----|---|-----|--------|----------|-------|------|-------|----------|------|
B|------|------|------|-----|-----|-----|---|-----|--------|----------|-------|------|-------|----------|------|
G|------|------|------|-----|-----|-----|---|-----|--------|----------|-------|------|-------|----------|------|
D|------|------|------|-----|-----|-----|---|2-2-2|-----2-2|----------|-------|------|-------|----------|------|
A|------|------|------|-----|-----|-----|---|-----|--------|-----7-5--|5h7~~--|5h7~~-|5-7-7~~|7-7-7-5h7~|5h7---|
E|3b-0--|------|------|0----|3b--0|3/5--|0--|-----|0-0-----|7~-------7|-------|------|-------|----------|-----0|


E|----|---------|--------|------------|----------|
B|----|---------|--------|------------|----------|
G|----|---------|--------|------------|----------|
D|----|---------|5-4-5-5~|5/7-5-2-0-2~|2-2-2-2-2~|
A|7---|--5-5h7~~|0-0-0-0-|0---0-------|----------|
E|---0|5--------|--------|------------|----------|

 Verse
E|-----------------|-----------|-----------------|-----------|-----------------|-----------|
B|-----------------|-----------|-----------------|-----------|-----------------|-----------|
G|-----------------|-----------|-----------------|-----------|-----------------|-----------|
D|-----------------|-----------|-----------------|-----------|-----------------|-----------|
A|-----------------|-----------|-----------------|-----------|-----------------|-----------|
E|15b--12-0-15b--12|0-15b--12~~|15b--12-0-15b--12|0-15b--12~~|15b--12-0-15b--12|0-15b--12~~|

Might fill spoons fill of water
Save you from the desert sands, yes
But what's a little spoon of little girl's
running fire
Save you from another man

E|-----------------|------------------------------|----------------------------------|--0-----------|
B|-----------------|------------------------------|------------15b17-----------------|--0-----------|
G|-----------------|----------14b16~--12-14-----12|-------------------12-14-------12b|----2br4p0-2p0|
D|-----------------|------------------------14~---|-------------------------12-14----|--------------|
A|-----------------|------------------------------|----------------------------------|--------------|
E|15b-12--12-15b-12|12-15p12----------------------|15b-12\--0------------------------|0-------------|

E|-------------------|
B|-------------------|
G|------0-2-0--------|
D|--0-2-------0-2----|
A|----------------2--|
E|0-----------------3|

E|-------|-----------------------------------12|
B|-------|11br-11br-11br---------------------12|
G|-------|11br-11br-11br-11br13-9-11----12-9---|
D|----2--|---------------------------11--------|
A|-------|-------------------------------------|
E|3-0---0|-------------------------------------|

People you're a-lying
Going around crying
Everything's a lyin'
Everything's fighting about the
A little old spoonful, spoonful, spoonful
spoonful, spoonful
spoonful, yeah yeah yeah yeah

E|------------0--|----------------------0|---------------------0|------------------------|0----0----|
B|------------0-x|----------------------0|---------------------0|------------------------|0----0----|
G|--------------x|-------2br4p0----------|-------2br4p0---------|------------------------|----------|
D|-----2--------x|-----2--------2--------|-----2--------2-------|0h2-0-----------------2~|----------|
A|---------------|-----------------------|----------------------|------2-0---------------|----------|
E|0-3b---3b-0----|0-3b-------------3b-0--|0-3b------------3b-0--|----------3b-0--0-3-0---|--3b------|

E|---------------------0|-------------------0|--------------------0|---------------------|-----0----|
B|---------------------0|-------------------0|--------------------0|---------------------|-----0----|
G|-------2br4p0---------|-----2br4p0---------|-------2br4p0--------|---------------------|----------|
D|-----2--------2-------|---2--------2-------|-----2--------2------|-------2-0-----------|----------|
A|----------------------|---------------2----|----------------2----|-----------2-1-0-----|----------|
E|0-3b------------3b-0--|3b-------------3-0--|0-3b------------3-0--|0-0-3b-----------3b-0|3b-0------|

                                                          Spoonful   Spoonful
E|--------------------------------------|----------------|-------------------|---------|--------------------|
B|--------------------------------------|----------------|-------------------|---------|--------------------|
G|--------------------------------------|----------------|-------------------|---------|----0---------------|
D|----/2-2-2-/2-2-2-/2-0----------------|------2~--------|-------------------|---------|0h2---2-0-2--2-5b-2~|
A|-----------------------2-1-0----2-----|----------------|-------------------|---------|--------------------|
E|0-0--------------------------3b-0-3b-0|3p0-3-----0--3p0|3b-0-0----3b-0-0---|0-3-3b--0|--------------------|

E|------------------|------------------|------------------|---------------------------|----------------|
B|------------------|------------------|------------------|---------------------------|----------------|
G|----0-------------|----0-------------|----0-------------|----0h2/4-2-4~--4\2-0-2-0--|----0--------0--|
D|0h2---2--0-2-5b-2~|0h2---2--0-2-5b-2~|0h2---2--0-2-5b-2~|0h2-----------------------2|0h2---2--0h2---2|
A|------------------|------------------|------------------|---------------------------|----------------|
E|------------------|------------------|------------------|---------------------------|----------------|

          Spoonful                  Spoonful eh
E|----------------|----------------|-----------|--------------|-------|--------------|---------|
B|----------------|----------------|-----------|--------------|-------|--------------|---------|
G|----0-----------|----------------|-----------|--------------|-------|--------------|---------|
D|0h2---2--2-5b-2~|2-2-5b-2--2-5b-2|5b--2~-----|--5b------5b--|--5b--2|2-5b-2--2-5b-2|5h7p5~---|
A|----------------|----------------|-----------|--------------|-------|--------------|-------7\|
E|----------------|----------------|-----------|0-3b-0--0-3b-0|0-3b---|--------------|---------|

E|-------------|------|-------------|------|-----------|------|
B|-------------|------|-------------|------|-----------|------|
G|-------------|------|-------------|------|-----------|------|
D|-------------|------|-------------|------|-----------|------|
A|-------------|------|-------------|------|-----------|------|
E|0-3b-0---3b-0|3b--0-|0-3b-0---3b-0|3b--0-|3b-0---3b-0|3b--0-|

Everything's a-lying about a
Spoonful, yeah
Yeah, yeah, yeah yeah

  (tremolo picked) for a while)
E|0----------------------------|---0----------0-|
B|0----------------------------|3b------------0-|
G|1----------------------------|-----2b-0-----1-|
D|0----------------------------|----------2~--2-|
A|2----------------------------|--------------2-|
E|0----------------------------|--------------0-|

| /  slide up
| \  slide down
| h  hammer-on
| p  pull-off
| ~  vibrato
| +  harmonic
| x  Mute note
Добавлено: 09.06.2016
Другие материалы по этой песне:
  • Аккорды и текст

Страница создана 09.06.2016
http://primanota.ru/cream/spoonful-live-chords.htm
Привет, Гость.
Предлагаем пройти революционный курс по гитаре.
Подарок от PrimaNota.Ru, забирай!