PrimaNota.ru - самый крупный в мире бесплатный архив песенных текстов, аккордов, табулатур и нот


Cream - Sleepy Time Time - текст песни, таба, бас-таба, видео

Регистрация Запомнить меня
Войти через:  Facebook Google Twitter Vk Yandex Mail.ru

Cream - Sleepy Time Time - текст песни, таба, бас-таба, видео

Печатать
Просмотров: 363
Авторы музыки: Janet Godfrey, Jack Bruce

Play with this lick a few times--it helps to sing while playing, or if you dont sing, 
in your head--We'll have a sleepy time time.

h=hammer on
p=pull off
b=bend
-------------------------------------------------------------------------|
-------------------------------------------------------------------------|
----------------8--9---------------------------------8--9----------------|
---------8----8-8-10-------8----8-------------8----8-8-10------8----8-10-|
----8h10---10---------8h10---10---11-12--8h10---10--------8h10---10------|
-------------------------------------------------------------------------|
We'll have a sleepy time time
--8-8-8-8---------------------------------------------------------------|
--8-8-8-8---------------------------------------------------------------|
--8-8-8-8---------------------------------------------------------------|
------------------------------------------------------------------------|
------------------------------------------------------------------------|
------------------------------------------------------------------------|
repeat these chords and play with them to how you think sounds cool. then this-
------------------------------------------------------------------------|
-----8------------8-10-10b11-10-8---------------------------------------|
--10---------9-10-----------------10-8----------------------------------|
-------10-10---------------------------10-8----8------------------------|
--------------------------------------------10---10---------------------|
------------------------------------------------------------------------|
solo
---8-8-8-6h8-6b8-8-8---8h11p8---8h11p8---8h11p8---8h11p8-11b13-11-8-8---|
--------------------11-------11-------11-------11-----------------------|
------------------------------------------------------------------------|
------------------------------------------------------------------------|
------------------------------------------------------------------------|
------------------------------------------------------------------------|

-----8-10-11-10-8------------------------15-14-13h14p13-----------------|
--11--------------11-8----8-11-8----8-11----------------16---13-16------|
-----------------------10----------------------------------15-----------|
------------------------------------------------------------------------|
------------------------------------------------------------------------|
------------------------------------------------------------------------|

------------------------------------------------------------------------|
-----13-16---13-16-16b20-13-13--13-13-13-13-15b17----20-20-20-20-20-----|
---15------15----------------------------------------20-20-20-20-20-----|
-----------------------------------------------------20-20-20-20-20-----|
------------------------------------------------------------------------|
------------------------------------------------------------------------|

---15-15-18b20-18b20-18b20-18b20-18b20-20-18-15----15-18-15-------------|
------------------------------------------------18----------18-16b17----|
---------------------------------------------------------------------17-|
------------------------------------------------------------------------|
------------------------------------------------------------------------|
------------------------------------------------------------------------|

--------------------------------------18----------18----------18--------|
--16-18-18b20-20-20-20-20-20-18b20-20----18b20-20----18b20-20-----------|
------------------------------------------------------------------------|
------------------------------------------------------------------------|
------------------------------------------------------------------------|
------------------------------------------------------------------------|

------------------------------------------------------------------------|
--20-18-16----16--------------------------------------------------------|
-----------17----17-15----15--------------------------------------------|
-----------------------17----17-----------------------------------------|
------------------------------------------------------------------------|
------------------------------------------------------------------------|
end of solo
------------------------------------------------------------------------|
------------------------------------------------------------------------|
---------------8--9------------------------------------8--9-------------|
--------8----8-8-10---------8----8--------------8----8-8-10--------8----|
---8h10---10----------8h10----10---11-12---8h10---10----------8h10---10-|
------------------------------------------------------------------------|
play with these chords again--
--------8-8-8-----------------------------------------------------------|
--------8-8-8-----------------------------------------------------------|
--------8-8-8-----------------------------------------------------------|
--8-10------------------------------------------------------------------|
------------------------------------------------------------------------|
------------------------------------------------------------------------|

------------------------------------------------------------------------|
-----8------------8-10-10b11-10-8---------------------------------------|
--10---------9-10-----------------10-8----------------------------------|
-------10-10---------------------------10-8----8------------------------|
--------------------------------------------10---10---------------------|
------------------------------------------------------------------------|

------------------------------------------------------------------------|
------------------------------------------------------------------------|
----------------11-10---------------------------------------------------|
--------8----8--10--9---------------------------------------------------|
---8h10---10----11-10---------------------------------------------------|
------------------------------------------------------------------------|
end of sleepy time time
Добавлено: 28.06.2013
Другие материалы по этой песне:
  • Аккорды и текст

Страница создана 07.05.2012
http://primanota.ru/cream/sleepy-time-time-chords.htm
Привет, Гость.
Предлагаем пройти революционный курс по гитаре.
Подарок от PrimaNota.Ru, забирай!