PrimaNota.ru - самый крупный в мире бесплатный архив песенных текстов, аккордов, табулатур и нот


Cream - Outside Women Blues - таба, видео

Регистрация Запомнить меня
Войти через:  Facebook Google Twitter Vk Yandex Mail.ru

Cream - Outside Women Blues - таба, видео

Печатать
Просмотров: 157
Уроки эстрадного вокала в Санкт-Петербурге
-----------------------------------------------------------------
                  Outside Women Blues - Cream
-----------------------------------------------------------------

Tabbed By : Aeonoptic
e-mail: aeonoptic@gmail.com

Tuning: EADGBe
  E7#9
E|-----------------|-----------------|------------------|-----------------|
B|----8------------|----8------------|----8-------------|----8------------|
G|----7------------|----7------------|----7-------------|----7------------|
D|----6-----2-----0|----6-----2-----0|----6------------0|----6-----------0|
A|----7-2h4---0h2--|----7-2h4---0h2--|----7-2h4---0h2---|----7-2h4---0h2--|
E|0-0--------------|0-0--------------|0-0---------------|0-0--------------|

 If you lose        Great god don't 
  your money        lose your mind
E|-----------------|-----------------|---------------|-----------------|
B|----8------------|----8------------|---------------|-----------------|
G|----7------------|----7------------|----12-14-14b16|-14-12----12~~---|
D|----6-----2-----0|----6-----2-----0|/14------------|-------14------14|
A|----7-2h4---0h2--|----7-2h4---0h2--|---------------|-----------------|
E|0-0--------------|0-0--------------|---------------|-----------------|


 If you lose        Great god don't 
  your money        lose your mind
E|-----------------|-----------------|--------------------------------|
B|----8------------|----8------------|--------------------------------|
G|----7------------|----7------------|----12-14-14b16-14-12----12~~---|
D|----6-----2-----0|----6-----2-----0|/14-------------------14------14|
A|----7-2h4---0h2--|----7-2h4---0h2--|--------------------------------|
E|0-0--------------|0-0--------------|--------------------------------|

  B7#9                               E7#9
       And if you |Please don't fool  
   lose your woman|      with mine  
E|----------------|-----------------|------------------|--------------|
B|-------3------3-|-----3------3----|------------------|--------------|
G|-------2------2-|-----2------2----|----12-14-14b16-14|-12----12~~---|
D|-------1------1-|-----1------1----|/14---------------|----14------14|
A|0-1-2--2--2-2-2-|-2-2-2--2-2-2----|------------------|--------------|
E|----------------|-----------------|------------------|--------------|
  
  I'm gonna buy me  Watch my old lady
   a bulldog        whilst I sleep
E|-----------------|-----------------|----------------|----------------|
B|----8------------|----8------------|----------------|----------------|
G|----7------------|----7------------|----12-14-14b16-|14-12----12~~---|
D|----6-----2-----0|----6-----2-----0|/14-------------|------14------14|
A|----7-2h4---0h2--|----7-2h4---0h2--|----------------|----------------|
E|0-0--------------|0-0--------------|----------------|----------------|

  I'm gonna buy me  Watch my old lady
   a bulldog        whilst I sleep
E|-----------------|-----------------|----------------|----------------|
B|----8------------|----8------------|----------------|----------------|
G|----7------------|----7------------|----12-14-14b16-|14-12----12~~---|
D|----6-----2-----0|----6-----2-----0|/14-------------|------14------14|
A|----7-2h4---0h2--|----7-2h4---0h2--|----------------|----------------|
E|0-0--------------|0-0--------------|----------------|----------------|

  B7#9                                         E7#9
  Cos women these  Are so doggone|That they might 
  days             crooked       might make off 
                                'fore day creep
E|----------------|-------------|-------------|------------------|--------------|
B|-------3------3-|-----3------3|-----3------3|------------------|--------------|
G|-------2------2-|-----2------2|-----2------2|----12-14-14b16-14|-12----12~~---|
D|-------1------1-|-----1------1|-----1------1|/14---------------|----14------14|
A|0-1-2--2--2-2-2-|-2-2-2--2-2-2|-2-2-2--2-2-2|------------------|--------------|
E|----------------|-------------|-------------|------------------|--------------|

  Well you can't    and your outside 
  watch your wife   women too
E|-----------------|-----------------|----------------|----------------|
B|----8------------|----8------------|----------------|----------------|
G|----7------------|----7------------|----12-14-14b16-|14-12----12~~---|
D|----6-----2-----0|----6-----2-----0|/14-------------|------14------14|
A|----7-2h4---0h2--|----7-2h4---0h2--|----------------|----------------|
E|0-0--------------|0-0--------------|----------------|----------------|

  Well you can't    and your outside 
  watch your wife   womens too
E|-----------------|-----------------|----------------|----------------|
B|----8------------|----8------------|----------------|----------------|
G|----7------------|----7------------|----12-14-14b16-|14-12----12~~---|
D|----6-----2-----0|----6-----2-----0|/14-------------|------14------14|
A|----7-2h4---0h2--|----7-2h4---0h2--|----------------|----------------|
E|0-0--------------|0-0--------------|----------------|----------------|
 
  B7#9                           E7#9
  Cos when you're out with your woman, 
  your wife would be at home, doing your dirt,
  cooking your food, buddy what 'cha trying to do? 
E|-------------|-----|-----|----|------------------|--------------|
B|-------3---3-|3---3|3---3|---3|------------------|--------------|
G|-------2---2-|2---2|2---2|---2|----12-14-14b16-14|-12----12~~---|
D|-------1---1-|1---1|1---1|---1|/14---------------|----14------14|
A|0-1-2--2---2-|2---2|2---2|---2|------------------|--------------|
E|-------------|-----|-----|----|------------------|--------------|

Standard progression/riff played behind solo

  Solo
E|---------12-----------------------------------|---------12------------------------------|
B|------12----15p12-----------------------------|------12---------------------------------|
G|14b16-------------14b15-14-12--14-12-------12b|14b16-------12h14----14--14-12-12h14-12~~|
D|-------------------------------------14-14----|------------------14---------------------|
A|----------------------------------------------|-----------------------------------------|
E|----------------------------------------------|-----------------------------------------|

E|---------12------------------------------|------------------12----15b17-15b17-12---------|
B|15b17~~-----15-12------------------------|---------------12----12----------------15-12---|
G|------------------14b16-14-12-14-12------|12-14-12-14b16-------------------------------14|
D|------------------------------------14-14|-----------------------------------------------|
A|-----------------------------------------|-----------------------------------------------|
E|-----------------------------------------|-----------------------------------------------|

                         B7#9                         
E|----------------------|---17b19-17b19-17-15-17---|17b19-15-17p15---------------------|
B|----------------------|17----------------------17|---------------17--17b18-15--------|
G|14b15-14-12h14-12~~---|--------------------------|----------------------------16\14~~|
D|----------------------|--------------------------|-----------------------------------|
A|----------------------|--------------------------|-----------------------------------|
E|----------------------|--------------------------|-----------------------------------|

                                   E7#9
E|--------------------------------|--------------------------------|
B|15p12----12---------------------|--------------------------------|
G|------14----14b15-14-12--13-----|----12-14-14b16-14-12----12~~---|
D|----------------------------14~~|/14-------------------14------14|
A|--------------------------------|--------------------------------|
E|--------------------------------|--------------------------------|


  You can't         and your outside 
  watch your wife   womens too
E|-----------------|-----------------|----------------|----------------|
B|----8------------|----8------------|----------------|----------------|
G|----7------------|----7------------|----12-14-14b16-|14-12----12~~---|
D|----6-----2-----0|----6-----2-----0|/14-------------|------14------14|
A|----7-2h4---0h2--|----7-2h4---0h2--|----------------|----------------|
E|0-0--------------|0-0--------------|----------------|----------------|

  You know you can't  and your outside 
  watch your wife   women too
E|-----------------|-----------------|----------------|----------------|
B|----8------------|----8------------|----------------|----------------|
G|----7------------|----7------------|----12-14-14b16-|14-12----12~~---|
D|----6-----2-----0|----6-----2-----0|/14-------------|------14------14|
A|----7-2h4---0h2--|----7-2h4---0h2--|----------------|----------------|
E|0-0--------------|0-0--------------|----------------|----------------|
 
  B7#9                           
  Cos when you're out with your woman, 
  your wife would be at home, doing your dirt,
  cooking your food, buddy what 'cha trying to do? 
E|-------------|-----|-----|-----|
B|-------3---3-|3---3|3---3|3---3|
G|-------2---2-|2---2|2---2|2---2|
D|-------1---1-|1---1|1---1|1---1|
A|0-1-2--2---2-|2---2|2---2|2---2|
E|-------------|-----|-----|-----|

E7#9
Hmmm, hmm, hmmMmmmm

| /  slide up
| \  slide down
| h  hammer-on
| p  pull-off
| ~  vibrato
| +  harmonic
| x  Mute note
Добавлено: 04.11.2015
Другие материалы по этой песне:
  • Аккорды и текст

Страница создана 04.11.2015
http://primanota.ru/cream/outside-women-blues-chords.htm
Привет, Гость.
Предлагаем пройти революционный курс по гитаре.
Подарок от PrimaNota.Ru, забирай!