PrimaNota.ru - самый крупный в мире бесплатный архив песенных текстов, аккордов, табулатур и нот


Cream - Blue Condition - текст песни, таба, видео

Регистрация Запомнить меня
Войти через:  Facebook Google Twitter Vk Yandex Mail.ru

Cream - Blue Condition - текст песни, таба, видео

Печатать
Просмотров: 209
Авторы музыки: Ginger Baker
Авторы текста: Ginger Baker
Title: Blue Condition
Artist: Cream
Album: Disraeli Gears

Instrument: 6 String Guitar

Tabbed by: Carl Harrison (carl@harrisoncarl.wanadoo.co.uk)

Notes:



Intro 
w/light distortion
E |-3/-1-0h1p0-----0---|-----------------||
B |-1-----------3--1---|-----------------||
G |------1h2p0--0--0---|-----------------||
D |-------------0--2---|--------------0--||
A |----------------3---|-----------2-----||
E |--------------------|--------3--------|| 

Verse 
    G	 C               G    C
E |-3----0-------------|-3----0----------||
B |-3----1-------------|-3----1----------||
G |-0----0--0----------|-0----0----------||
D |-0----2----3p0------|-0----2-------0--|| x4
A |-2----3-------------|-2----3----2-----||
E |-3------------------|-3------3--------|| 

Chorus 1 
Guitar 1
    C    F    C          C    F    C  
E |-0----1----0--------|-0----1----0-------||
B |-1----1----1--------|-1----1----1-------||
G |-0----2----0--------|-0----2----0-------||
D |-2----3----2--------|-2----3----2-------||
A |-3----3----3--------|-3----3----3-------||
E |------1-------------|------1------------||

Guitar 2
E |--------------------|-------------------||
B |--------------------|-------------------||
G |----------8b(9)-5---|-------------------||
D |------------------5-|------10b(11)-8----||
A |--------------------|----------------10-||
E |--------------------|-------------------||

Guitar 1
    C    F    C         F   C    G
E |-0----1----0-------|-1---0----3--------||
B |-1----1----1-------|-1---1----3--------||
G |-0----2----0-------|-2---0----0--------||
D |-2----3----2-------|-3---2----0--------||
A |-3----3----3-------|-3---3----2--------||
E |------1------------|-1--------3--------||
    G         G  C
E |-3---------3--0----||
B |-3---------3--1----||
G |-0---------0--0----||
D |-0---------0--2----||
A |-2---------2--3----||
E |-3---------3-------||

Back to Verse

Chorus 2 
Guitar 1
    C    F    C          C    F    C  
E |-0----1----0--------|-0----1----0-------||
B |-1----1----1--------|-1----1----1-------||
G |-0----2----0--------|-0----2----0-------||
D |-2----3----2--------|-2----3----2-------||
A |-3----3----3--------|-3----3----3-------||
E |------1-------------|------1------------||

Guitar 2
E |--------------------|-------------------||
B |--------------------|-------------------||
G |-------------5-8b(9)|------10b(11)-8----||
D |---------5-8--------|----------------10-||
A |--------------------|-------------------||
E |--------------------|-------------------||

Guitar 1
    C    F    C         F   C    G
E |-0----1----0-------|-1---0----3--------||
B |-1----1----1-------|-1---1----3--------||
G |-0----2----0-------|-2---0----0--------||
D |-2----3----2-------|-3---2----0--------||
A |-3----3----3-------|-3---3----2--------||
E |------1------------|-1--------3--------||
    G         G  C
E |-3---------3--0----||
B |-3---------3--1----||
G |-0---------0--0----||
D |-0---------0--2----||
A |-2---------2--3----||
E |-3---------3-------|| 

Back to Vesre 

Chorus 3 & 4 exactly the same as Chorus 1

Enjoy!
Добавлено: 27.08.2013
Другие материалы по этой песне:
  • Аккорды и текст

Страница создана 30.04.2012
http://primanota.ru/cream/blue-condition-chords.htm
Привет, Гость.
Предлагаем пройти революционный курс по гитаре.
Подарок от PrimaNota.Ru, забирай!