PrimaNota.ru - самый крупный в мире бесплатный архив песенных текстов, аккордов, табулатур и нот


Crazy Town - Them Days - текст песни, бас-таба, видео

Регистрация Запомнить меня
Войти через:  Facebook Google Twitter Vk Yandex Mail.ru

Crazy Town - Them Days - текст песни, бас-таба, видео

Печатать
Просмотров: 63
Уроки эстрадного вокала в Санкт-Петербурге
Авторы: Roland Torshawn, Percy Washington, Seth Brooks Binzer, Bret 'Epic' Mazur, Doug Miller, Krayge Tyler, Anthony Valli

Song : Them Days
Band : Crazy Town
Album : Darkhorse

Turn your E string into a C#

Intro
G :--------------------------------------
D :------------------66/4----------------
A :--------------------------------------
C#:-16/4----5-5-4---------4----5-5-4-----

1st Verse
G :-------------------------|X4
D :-66/4--------------------|X4
A :-------------------------|X4
C#:-------4-4-4--5-5-4------|X4

Chorus
G :---------------------|X4|---
D :----10-------11------|X4|---
A :-8------8-9------9---|X4|-8-
C#:---------------------|X4|---

2nd Verse
G :----------|--------------------|X3|----------------------|X2
D :----------|-66/4---------------|X3|-66/4-----------------|X2
A :----------|--------------------|X3|----------------------|X2
C#:--5-5-4---|------4----5-5-4----|X3|------4-4-4--5-5-4----|X2

3rd Verse
G :----------|----------------------|X6|------------------------------
D :----------|-66/4-----------------|X6|-66/4-------------------------
A :----------|----------------------|X6|------------------------------
C#:--5-5-4---|------4-4-4--5-5-4----|X6|------4-4-4--5-5-5-4--4--4--4-

Last Chorus
G :---------------------|X3|----8------9----10--5///17/18/17-
D :----10-------11------|X3|-6-----6-6----7------------------
A :-8------8-9------9---|X3|---------------------------------
C#:---------------------|X3|---------------------------------

4th Verse
G :--------------|----------------------|X3|------
D :--------------|-66/4-----------------|X3|-66/4-
A :--------------|----------------------|X3|------
C#:-4----5-5-4---|------4-4-4--5-5-4----|X3|------

Last Chorus
G :---------------------|X4|-17/16--16/15--15/14--14/13--13/12---------
D :----10-------11------|X4|------15-----14-----13-----12-----11-------
A :-8------8-9------9---|X4|-------------------------------------------
C#:---------------------|X4|------------------------------------4/16-0-
Добавлено: 23.02.2016
Другие материалы по этой песне:
  • Аккорды и текст

Страница создана 05.01.2014
http://primanota.ru/crazy-town/them-days-chords.htm
Привет, Гость.
Предлагаем пройти революционный курс по гитаре.
Подарок от PrimaNota.Ru, забирай!