PrimaNota.ru - самый крупный в мире бесплатный архив песенных текстов, аккордов, табулатур и нот


Crazy Town - Skulls And Stars - текст песни, таба, видео

Регистрация Запомнить меня
Войти через:  Facebook Google Twitter Vk Yandex Mail.ru

Crazy Town - Skulls And Stars - текст песни, таба, видео

Печатать
Просмотров: 56
Уроки эстрадного вокала в Санкт-Петербурге
Авторы: Thomas Abate, Seth Brooks Binzer, Bret 'Epic' Mazur, Doug Miller, Krayge Tyler, Anthony Valli

tuning: drop Db (low to high): C# G# C# F# Bb Eb

Main solo

|---------------------------------------------|
|--11------14---9-------9---------------------|
|-----11-----------9--------9-----------------|      x 30
|---------------------------------------------|
|--9-------12---7-----7-----------------------|
|---------------------------------------------|

on the 5th time of this riff vocals come in
after you play this for about 30 times this thingy comes in :

Verse

|---------------------------------------------|
|-7----10-----5-------------------------------|
|---------------------------------------------|  x 4
|---------------------------------------------|
|-9----12-----7-------------------------------|
|---------------------------------------------|

after you play this for 4 times go back to the main riff 
and play it 4 times and then play the " Verse " again once.
then just go back to the main riff and plar it 'till the end.
Добавлено: 23.02.2016
Другие материалы по этой песне:
  • Аккорды и текст

Страница создана 06.03.2012
http://primanota.ru/crazy-town/skulls-and-stars-chords.htm
Привет, Гость.
Предлагаем пройти революционный курс по гитаре.
Подарок от PrimaNota.Ru, забирай!