PrimaNota.ru - самый крупный в мире бесплатный архив песенных текстов, аккордов, табулатур и нот


Crazy Town - Change - аккорды и текст, таба, бас-таба, видео

Регистрация Запомнить меня
Войти через:  Facebook Google Twitter Vk Yandex Mail.ru

Crazy Town - Change - аккорды и текст, таба, бас-таба, видео

Печатать
Просмотров: 501
Уроки эстрадного вокала в Санкт-Петербурге
Авторы: Thomas Abate, Seth Brooks Binzer, Bret 'Epic' Mazur, Doug Miller, Krayge Tyler, Anthony Valli

Change
Crazy Town
Artist 	: Crazy Town
Song 	: Change
Album	: Darkhorse
Tabs By	: cxtbboy
 
Intro
G ----------------------------------------------------------------
D ----------------------------------------------------------------
A ----------------------------------------------------7----9---12
E ----------------------------------------------------------------
B ----------------------------------------------------------------

Verse (x3)

G --------(6)-----------11--------11-----------------------------
D ---------------------9---------9--------------------------------
A -4----------------7---------9---------------------------0------
E --------------------------------------------------------------0-
B ---------------------------------------2-----------------------

Chorus (repeat as necessary)

G -----------------------------------------------------------------
D -----------------------------------------------------------------
A -4-----------------------4----------0--------------------------
E --------------0-----2-----------------------0--------------------
B -----------------------------------------------------------------

Bridge (x3)
G -----------------------------------------------------------------
D -----------------------------------------------------------------
A -4------0--------------------------------------------------------
E --------------2-----0--------------------------------------------
B -----------------------------------------------------------------

G -----------------------------------------------------------------
D -----------------------------------------------------------------
A -4------0--------------------------------------------------------
E --------------0-------------------------------------------------
B -----------------------------------------------------------------

Outro
G -----------------------------------------------------------------
D -----------------------------------------------------------------
A ----------------------------------------------------------0-----
E -----------------------------------------------------------------
B -----------------------------------------------------------------

 = let ring
Добавлено: 16.09.2013
Другие материалы по этой песне:

Страница создана 11.03.2012
http://primanota.ru/crazy-town/change-chords.htm
Привет, Гость.
Предлагаем пройти революционный курс по гитаре.
Подарок от PrimaNota.Ru, забирай!