PrimaNota.ru - самый крупный в мире бесплатный архив песенных текстов, аккордов, табулатур и нот


Crazy Lixx - Outlaw - таба, видео

Регистрация Запомнить меня
Войти через:  Facebook Google Twitter Vk Yandex Mail.ru

Crazy Lixx - Outlaw - таба, видео

Печатать
Просмотров: 95
Outlaw - Crazy Lixx
Tuning Half Step Down - Eb Ab Db Gb Bb eb
Tabbed By - Derek Schmidt

Check out my page for video cover - http://www.hammerheadrocks.com/#!dereks-page/c11nt

Tab Key:
h - hammer on
p - pull off
b - bend
r - release
v - vibrato
= - hold note
PH - pinch harmonic
\ - slide down neck
/ - slide up neck
PM - palm mute
W - whammy 
x - muted note
NH - natural harmonic



Intro:
e-----------2-2-2-2---|     |--------|
B-----------2-2-2-2---|     |--3-----|
G---------------------|     |--2-----|
D--2-4--4-------------|     |--0--2--|
A--2-4--4-------------|     |-----2--|
E--0-2--2-------------| X3  |-----0--|

e-----------2--2--2--2---|     |-----------|
B-----------2--2--2--2---|     |--3--------|
G------------------------|     |--2--------|
D--2-4--4----------------|     |--0--2--4--|
A--2-4--4----------------|     |-----2--4--|
E--0-2--2----------------| X3  |-----0--2--|


Verse
e--------------------------------------------|
B--3--------------3-------------------3------|
G--2--------------2-------------------2------|
D--0---2---4------0---2---4---4--4-2--0---2--|
A------2---4----------2---4---4--4-2------2--|
E------0---2----------0---2---2--2-0------0--|


Pre Chorus
e---------------------------|
B----------2---2------------|
G----------2---2---2--4--6--|
D--4---2---0---0---2--4--6--|
A--4---2-----------0--2--4--|
E--2---0--------------------|


Chorus
e-------------------|     |--------2-2-2-2--|
B--------3----------|     |--------2-2-2-2--|
G--------2---2------|     |-----------------|
D--4---2-0---2---2--|     |--4--4-----------|
A--4---2-----0---2--|     |--4--4-----------|
E--2---0---------0--| X2  |--2--2-----------| X4


Post Chorus
e----------------------|
B--3----------3--------|
G--2----------2--2-----|
D--0---2---4--0--2--4--|
A------2---4-----0--4--|
E------0---2--------2--|


Verse 2
e------------------------------------------------------|
B--3--------------3--------------3-3-3-3-3-------------|
G--2--------------2--------------2-2-2-2-2-------------|
D--0---2---4------0---2---4------0-0-0-0-0--2-2-2-2-2--|
A------2---4----------2---4-----------------2-2-2-2-2--|
E------0---2----------0---2-----------------0-0-0-0-0--|
                                |PM=====|  |PM=====|


Pre Chorus



Chorus



Post Chorus
e-----------------------------|
B--3--------------------------|
G--2--------------------------|
D--0---2---4--6--7--9--10-11--|
A------2---4--6--7--9--10-11--|
E------0---2--4--5--7--8--9---|


Solo
e----------2----------------------------------------|
B--------2---5p2-----------------------------17b19--|
G--4b6------------2-4PH-----2-----------------------|
D-------------------------4---4-2-------------------|
A---------------------------------2p0-0-2-----------|
E---------------------------------------------------|

e--------------|     |---------------|     |----------------|
B--14h17p14----|     |--14h17p14-----|     |--14h17p14------|
G-----------16-|     |-----------17--|     |------------16--|
D--------------|     |---------------|     |----------------|
A--------------|     |---------------|     |----------------|
E--------------| X4  |---------------| X3  |----------------|

e--17b19-17b19--17p14-----14--------|
B----------------------17----17b19--|
G-----------------------------------|
D-----------------------------------|
A-----------------------------------|
E-----------------------------------|

e----------------------------------------------------|
B--/10--9--------------------------------------------|
G----------/11--9------------------------------------|
D-----------------/11--9--11-------9h11---11p9-------|
A-----------------------------9h12-------------12p9--|
E----------------------------------------------------|

e----------------------------|
B--/10--9--------------------|
G---------/11--9-------------|
D----------------/11--9------|
A------------------------12--|
E----------------------------|

e---------------------------------------------|
B---------------------------------------------|
G---------------------------------------------|
D--7h9p7---9h11p9----11h14p11----14h16p14-----|
A--------9--------12----------14----------16--|
E---------------------------------------------|

e----------------------------------------------------------------------|
B----------------------------------------------------------------------|
G----------13b14----13b14--------------------14--13h14p13----14-16-14--|
D--16--14--------14-------16--14h16-16-14h16--------------16-----------|
A----------------------------------------------------------------------|
E----------------------------------------------------------------------|

e-----------------------|
B-----------------------|
G--16b18--16b18--16b18--|
D-----------------------|
A-----------------------|
E-----------------------|


Chorus (up a tone)
e-------------------|     |--------4-4-4-4--|
B-------------------|     |--------4-4-4-4--|
G------------4------|     |-----------------|
D--6---4-2---4---4--|     |--6--6-----------|
A--6---4-2---2---4--|     |--6--6-----------|
E--4---2-0-------2--| X2  |--4--4-----------| X4


Post Chorus
e----------------------------|
B----------------------------|
G----------------------------|
D--2--4--6--8--9--11-12--13--|
A--2--4--6--8--9--11-12--13--|
E--0--2--4--6--7--9--10--11--|


Bridge Part 1
e------------------------------------------|
B------------------------------------------|
G--6--6b8===-6p4------6b8r6-4--6-6--6-6p4--|
D------------------6-----------------------|
A------------------------------------------|
E------------------------------------------| X4


Bridge Part 2     (fade out with this)
e------------------------------------------------------|
B------------------------------------------------------|
G----------4-----------4-4-----------4----------4------|
D--6--4h6----6--4--4h6-----6--6--4h6---6--4-4h6-----6--|
A------------------------------------------------------|
E------------------------------------------------------| 
Добавлено: 16.06.2016
Другие материалы по этой песне:
  • Аккорды и текст

Страница создана 16.06.2016
http://primanota.ru/crazy-lixx/outlaw-chords.htm
Привет, Гость.
Предлагаем пройти революционный курс по гитаре.
Подарок от PrimaNota.Ru, забирай!