PrimaNota.ru - самый крупный в мире бесплатный архив песенных текстов, аккордов, табулатур и нот


Crazy Lixx - Hell Raising Women - таба, видео

Регистрация Запомнить меня
Войти через:  Facebook Google Twitter Vk Yandex Mail.ru

Crazy Lixx - Hell Raising Women - таба, видео

Печатать
Просмотров: 298
Hell Raising Women - Crazy Lixx
Tuning Half Step Down - Eb Ab Db Gb Bb eb


Intro:
Guitar 1
e----------------------------------------------------------------------------------------|
B----------------------------------------------------------------------------------------|
G-----/4-2----------2---/4-2--------/4-2-------/4-2--------------/4-2-----4--/4-2-----6--|
D--4-------4-2-4----2--------4-2-2-------4-2-4------4-2-4----6-7------4-2-4-------4-2-6--|
A--4-----------4----0------------2-----------4----------4----6-7----------2-----------4--|
E--2-----------2-----------------0-----------2----------2----4-5-------------------------|

Guitar 2
e----------------------------------------------------------------------------------------|
B----------------------------------------------------------------------------------------|
G-------------------2-----------------------------------------------------4-----------6--|
D--4-----------4----2------------2-----------4----------4----6-7----------4-----------6--|
A--4-----------4----0------------2-----------4----------4----6-7----------2-----------4--|
E--2-----------2-----------------0-----------2----------2----4-5-------------------------|

Guitar 1
e--------------------------------------------------------------------------------------------|
B--------------------------------------------------------------------------------------------|
G-----/4-2---------------2-----/4-2-----2--2-------------/4-2--------------2-----2--4--5--6--|
D--4-------4-2-4---4-2-4-2---4------4-2-2--2-4---------4------4-2-4--4-2-4-2--2--2--4--5--6--|
A--4-----------4---4-2-4-0---4----------0--0-4---------4----------4--4-2-4-0--2--0--2--3--4--|
E--2-----------2---2-0-2-----2---------------2---------2----------2--2-0-2----0--------------|

Guitar 2
e---------------------------------------------------4----------------------------------------|
B---------------------------------------------------4----------------------------------------|
G--------------------------------------------------------------------------------2--4--5--6--|
D--4----------4---4-2-4-7---4-----------7--7-4---------4----------4--4-2-4-7--2--2--4--5--6--|
A--4----------4---4-2-4-7---4-----------7--7-4---------4----------4--4-2-4-7--2--0--2--3--4--|
E--2----------2---2-0-2-5---2-----------5--5-2--x-x----2----------2--2-0-2-5--0--------------|


Verse: Both Guitars
e--------------------------------|
B---------------7-107------------|
G---------------6-9-6------------|
D--4-----4--4---4-7-4--4------2--|
A--4-----4--4----------4------2--|
E--2-----2--2----------2------0--| X2


Pre Chorus:
e-------------------------------------------------------------------------------------------------|
B-------------------------------------------------------------------------------------------------|
G--6-7--7-7-7--9-9-11--6-7--7-7-7--10-10-11--6-7--7-7-7--9-9-11--9-9-9-9-9-9-9-9-6-6-6-6-6-6-6-6--|
D--6-7--7-7-7--9-9-11--6-7--7-7-7--10-10-11--6-7--7-7-7--9-9-11--9-9-9-9-9-9-9-9-6-6-6-6-6-6-6-6--|
A--4-5--5-5-5--7-7-9---4-5--5-5-5--8--8--9---4-5--5-5-5--7-7-9---7-7-7-7-7-7-7-7-4-4-4-4-4-4-4-4--|
E-------------------------------------------------------------------------------------------------|


Chorus:
e-------------------------------------------------------------------------------------------|
B-------------------------------------------------------------------------------------------|
G----/4-2--------------2---2-----------------/4-2--------------2----/4-2--------/4-2--------|
D--4------4-2-4--4-2-4-2---2------2-------4-------4-2-4--4-2-4-2--4------4-2-2-------4-2-4--|
A--4----------4--4-2-4-0---0------2-------4-----------4--4-2-4-0--4----------2-----------4--|
E--2----------2--2-0-2------------0-------2-----------2--2-0-2----2----------0-----------2--|

e------------------------------------------|
B------------------------------------------|
G--/4-2--------------2----/4-2-----2--2----|
D-------4-2-4--4-2-4-2--4------4-2-2--2-4--|
A-----------4--4-2-4-0--4----------0--0-4--|
E-----------2--2-0-2----2---------------2--|

Verse

Pre Chorus

Chorus
e-------------------------------------------------------------------------------|
B-------------------------------------------------------------------------------|
G----/4-2--------------2---2-----------------/4-2--------------2----/4-2--------|
D--4------4-2-4--4-2-4-2---2------2-------4-------4-2-4--4-2-4-2--4------4-2-2--|
A--4----------4--4-2-4-0---0------2-------4-----------4--4-2-4-0--4----------2--|
E--2----------2--2-0-2------------0-------2-----------2--2-0-2----2----------0--|

           | But then it changes here |
e----------|--------------------------|------------------|
B----------|--------------------------|------------------|
G--/4-2----|--------------------------|------------------|
D-------4-2|-4-4-4-4-4-4-4-4-4-4-4-4-4|--/4-2---2--------|
A----------|-4-4-4-4-4-4-4-4-4-4-4-4-4|-------4---4p2p0--|
E----------|-2-2-2-2-2-2-2-2-2-2-2-2-2|------------------|
           |you'll do this for a while|

Bridge:
e--------------------------------------------------------------|
B--------3---3-------------------------------------------------|
G-----2--2---2--2------------7--8--9--10-11-111111111111111111-|
D--2--2--0---0--2--2---2--7--7--8--9--10-11-111111111111111111-|
A--2--0---------0--2---2--7--5--6--7--8--9--9-9-9-9-9-9-9-9-9--|
E--0---------------0---0--5------------------------------------|


Solo:
e--------------------------------------------------------------------------|
B--11-----11------------------------------------------------------------16-|
G--13b15-----13b15r13p11----11h13p11-11-13b15r13-11-13v-11-13b15-11/13-----|
D------------------------13------------------------------------------------|
A--------------------------------------------------------------------------|
E--------------------------------------------------------------------------|

e-----------------    |----------------------    |-------|
B--------11h14p11-    |------11h14p11h14p11--    |--14v--|
G--13b15----------    |--13b-----------------    |-------|
D-----------------    |----------------------    |-------|
A-----------------    |----------------------    |-------|
E-----------------X4  |----------------------X2  |-------|

e-----------11----11-13-14-11-13-14/16-13-14-16/17-14-16-17p16p14----------|
B--11-12-14----14----------------------------------------------------------|
G--------------------------------------------------------------------------|
D--------------------------------------------------------------------------|
A--------------------------------------------------------------------------|
E--------------------------------------------------------------------------|

e--16b17---16---14--16b17--16--14---------14---16--17b19--17--14---------|
B----------------------------------17b19--------------------------17b19v-|
G------------------------------------------------------------------------|
D------------------------------------------------------------------------|
A------------------------------------------------------------------------|
E------------------------------------------------------------------------|

                                               | Then I think he does this lick a few times|
e--14----------------------------------------  |---------------|
B------17p14----14---------------------------  |---------------|
G------------16----16p14----14h16p14--16b18--  |--14h16p14-----|
D------------------------14------------------  |-----------16--|
A--------------------------------------------  |---------------|
E--------------------------------------------  |---------------|


Chorus
e-------------------------------------------------------------------------------|
B-------------------------------------------------------------------------------|
G----/4-2--------------2---2-----------------/4-2--------------2----/4-2--------|
D--4------4-2-4--4-2-4-2---2------2-------4-------4-2-4--4-2-4-2--4------4-2-2--|
A--4----------4--4-2-4-0---0------2-------4-----------4--4-2-4-0--4----------2--|
E--2----------2--2-0-2------------0-------2-----------2--2-0-2----2----------0--|

e----------|--------------------------|------------------------|-------------------|
B----------|--------------------------|------------------------|-------------------|
G--/4-2----|--------------------------|----/4-2-------/4-2-----|-------------------|
D-------4-2|-4-4-4-4-4-4-4-4-4-4-4-4-4|--4------4-2-2------4-2-|4-4-4-4-4-4-4-4-4-4|
A----------|-4-4-4-4-4-4-4-4-4-4-4-4-4|--4----------2----------|4-4-4-4-4-4-4-4-4-4|
E----------|-2-2-2-2-2-2-2-2-2-2-2-2-2|--2----------0----------|2-2-2-2-2-2-2-2-2-2|

e--------------------------------------------------------------------------------------------------|
B--------------------------------------------------------------------------------------------------|
G-----/4-2--------/4-2-------/4-2-------/4-2--------/4-2--------/4-2--------/4-2-------/4-2--------|
D--4-------4-2-2-------4-2-4------4-2-2------4-2-4-------4-2-2-------4-2-4-------4-2-2------4-2-4--|
A--4-----------2-----------4----------2----------4-----------2-----------4-----------2----------4--|
E--2-----------0-----------2----------0----------2-----------0-----------2-----------0----------2--|

e-------------------|
B-------------------|
G--/4-2-----2--2----|
D-------4-2-2--2-4--|
A-----------0--0-4--|
E----------------2--|


Tabbed By Schmidt
Добавлено: 04.08.2015
Другие материалы по этой песне:
  • Аккорды и текст

Страница создана 04.08.2015
http://primanota.ru/crazy-lixx/hell-raising-women-chords.htm
Привет, Гость.
Предлагаем пройти революционный курс по гитаре.
Подарок от PrimaNota.Ru, забирай!