PrimaNota.ru - самый крупный в мире бесплатный архив песенных текстов, аккордов, табулатур и нот


The Cravats - Gordon - бас-таба, видео

Регистрация Запомнить меня
Войти через:  Facebook Google Twitter Vk Yandex Mail.ru

The Cravats - Gordon - бас-таба, видео

Печатать
Просмотров: 39
Уроки эстрадного вокала в Санкт-Петербурге
-------------------------------------------------------------------------------
                             Gordon - The Cravats
-------------------------------------------------------------------------------
Tabbed by: Owen Roberts
E-mail: firedance1989@outlook.com

Blast off,people!

Tuning:Standard

Main Riff(x10)
G|-----------------------------------------------------------------|
D|-----------------------------------------------------------------|
A|1-1---------------------4-4--------------------------------------|
E|----1-1-4-4-0-0-2-2-0-0-----4-4-1-1-1-1-1-1-1-1-1-1-1-1-1-1-1-1--|

Chorus(x2)
G|-----------------------------------------------------------------|
D|-----------------------------------------------------------------|
A|----9-9-7-7---------7-7-5-5---------5-5-3-3----------------------|
E|7-7---------9-9-5-5---------7-7-3-3---------5-5-1-1-1-1-1-1-1-1--|

Main Riff(x5)
Chorus(x2)
Main Riff


And that's all there is to it!I think this is accurate but I am a bit of a novice,so any corrections are
welcome.

| /  slide up
| \  slide down
| h  hammer-on
| p  pull-off
| ~  vibrato
| +  harmonic
| x  Mute note
===============================================================================
Добавлено: 11.08.2015
Другие материалы по этой песне:
  • Аккорды и текст

Страница создана 11.08.2015
http://primanota.ru/cravats/gordon-chords.htm
Привет, Гость.
Предлагаем пройти революционный курс по гитаре.
Подарок от PrimaNota.Ru, забирай!