PrimaNota.ru - самый крупный в мире бесплатный архив песенных текстов, аккордов, табулатур и нот


Crass - Youre Already Dead - текст песни, бас-таба, видео

Регистрация Запомнить меня
Войти через:  Facebook Google Twitter Vk Yandex Mail.ru

Crass - Youre Already Dead - текст песни, бас-таба, видео

Печатать
Просмотров: 138
Авторы музыки: Crass
Авторы текста: Crass
-----------------------------------------------------------------------------
			 Crass - You're Already Dead
-----------------------------------------------------------------------------

Tabbed By : Extra Blood
e-mail: Lenda@ofir.dk

Tuning: Standard

Fuck All Power!

------------------------------------------------------------------------

In the intro, I just slide up and down
the fretboard. It's impossible to tab
that part because of all the noise.

Anyway, there are only three parts in
the entire song. The Verse, 1st chorus
and the 2nd chorus.

Verse:

    h       h         q+e   q  q+e
G-|-----------------|----------------|
D-|-----------------|----------------|
A-|-----------------|-------3--5-----|
E-|-5/------5/------|-5/-------------|

Break / "You're already dead..."

1st Chorus:

     e e e e  q  q    w                e e e e  q  q    w                   
G-|-----------------|----------------|----------------|----------------|
D-|-----------5--7--|----------------|----------8--10-|-9\-------------|
A-|--------7--------|-8\-------------|-------10-------|----------------|
E-|--5-5-5----------|----------------|-8-8-8----------|----------------|

     e e e e  q  q     e e e e q  q     e e e e  q  q   h      h             
G-|-----------------|----------------|-----------3--5-|--------4-------|
D-|-----------5--7--|--------1-------|--------5-------|----------------|
A-|--------7--------|----------3--1--|--3-3-3---------|-2--------------|
E-|--5-5-5----------|--1-1-1---------|----------------|----------------|

    w++++++++++++++++++w                e e e e q  q    w               
G-|-----------------|----------------|----------------|----------------|
D-|-----------------|----------------|----------6--8--|----------------|
A-|-----------------|----------------|--------8-------|-9\-------------|
E-|-7\--------------|-(7)------------|--6-6-6---------|----------------|

     e e e e  q  q     w                e e e e q  q     e e e e q  q        
G-|-----------------|----------------|----------------|----------------|
D-|-----------9--11-|-10\------------|----------6--8--|--------2-------|
A-|--------11-------|----------------|--------8-------|----------4--2--|
E-|--9-9-9----------|----------------|--6-6-6---------|--2-2-2---------|

     e e e e q  q     h       h        w+++++++++++++++++w                   
G-|----------4--6---|---------5------|----------------|----------------|
D-|--------6--------|----------------|----------------|----------------|
A-|--4-4-4----------|-3--------------|----------------|----------------|
E-|-----------------|----------------|-8\-------------|-(8)------------|

     e e e e q  q                      e e e e  q  q    w                    
G-|-----------------|----------------|----------5--7--|-6--------------|
D-|----------7--9---|----------------|-------7--------|----------------|
A-|--------9--------|-10\------------|-5-5-5----------|----------------|
E-|--7-7-7----------|----------------|----------------|----------------|

     e e e e q  q      e e e e q  q     e e e e q  q    h      h            
G-|----------2--4---|----------------|----------5--7--|--------6-------|
D-|--------4--------|--------3-------|--------7-------|----------------|
A-|--2-2-2----------|----------5--3--|--5-5-5---------|-4--------------|
E-|-----------------|--3-3-3---------|----------------|----------------|

    w++++++++++++++++++w
G-|-----------------|----------------|
D-|-----------------|----------------|
A-|-----------------|----------------|
E-|-9\--------------|-(9)------------|


Verse:

    h       h         q+e   q  q+e
G-|-----------------|----------------|
D-|-----------------|----------------|
A-|-----------------|-------3--5-----|
E-|-5/------5/------|-5/-------------|

Break / "You're already dead..."

2nd Chorus:

     e e e e  q  q    w                 e e e e q  q    w                   
G-|-----------------|----------------|----------6--8--|-7\-------------|
D-|-----------8--10-|----------------|--------8-------|----------------|
A-|--------10-------|-11\------------|--6-6-6---------|----------------|
E-|--8-8-8----------|----------------|----------------|----------------|

     e e e e  q  q     e e e e q  q     e e e e  q  q   h      h             
G-|-----------3--5--|----------------|-----------6--8-|--------7-------|
D-|--------5--------|--------4-------|--------8-------|----------------|
A-|--3-3-3----------|----------6--4--|--6-6-6---------|-5--------------|
E-|-----------------|--4-4-4---------|----------------|----------------|

    w++++++++++++++++++w                e e e e q  q    w               
G-|-----------------|----------------|----------------|----------------|
D-|-----------------|----------------|-----------5--7-|----------------|
A-|-----------------|----------------|--------7-------|-8\-------------|
E-|-10\-------------|-(10)-----------|--5-5-5---------|----------------|

     e e e e  q  q    w                e e e e  q  q     e e e e q  q     
G-|-----------------|----------------|----------------|----------------|
D-|----------8--10--|-9\-------------|----------5--7--|--------1-------|
A-|-------10--------|----------------|-------7--------|----------3--1--|
E-|-8-8-8-----------|----------------|-5-5-5----------|--1-1-1---------|

     e e e e  q  q   h      h         w+++++++++++++++++w       
G-|-----------3--5-|--------4-------|----------------|-----------------|
D-|--------5-------|----------------|----------------|-----------------|
A-|--3-3-3---------|-2--------------|----------------|-----------------|
E-|----------------|----------------|-7\-------------|-(7)-------------|

Verse:

    h       h         q+e   q  q+e
G-|-----------------|----------------|
D-|-----------------|----------------|
A-|-----------------|-------3--5-----|
E-|-5/------5/------|-5/-------------|

Just keep playing the verse until
it fades out.
Добавлено: 12.07.2012
Вам также может быть интересно:
Другие материалы по этой песне:
  • Аккорды и текст

Страница создана 18.06.2012
http://primanota.ru/crass/youre-already-dead-chords.htm
Привет, Гость.
Предлагаем пройти революционный курс по гитаре.
Подарок от PrimaNota.Ru, забирай!