PrimaNota.ru - самый крупный в мире бесплатный архив песенных текстов, аккордов, табулатур и нот


Crass - Where Next Columbus - текст песни, бас-таба, видео

Регистрация Запомнить меня
Войти через:  Facebook Google Twitter Vk Yandex Mail.ru

Crass - Where Next Columbus - текст песни, бас-таба, видео

Печатать
Просмотров: 159
Уроки эстрадного вокала в Санкт-Петербурге
Авторы музыки: Crass

-----------------------------------------------------------------------------
			Crass - Where Next Columbus?
-----------------------------------------------------------------------------

Tabbed By : Extra Blood
e-mail: Lenda@ofir.dk

Tuning: Standard

The tempo differs a bit throughout the song.

=============================================================================

Intro:

G-|-----------------|-----------------|-----------------|-----------------|
D-|-----------------|-----------------|-1-1-1-1-1-1-1-1-|-3-3-3-3-3-3-3-1-|
A-|-3-3-3-3-3-3-3-3-|-1-1-1-1-1-1-1-1-|-----------------|-----------------|
E-|-----------------|-----------------|-----------------|-----------------|

G-|-----------------|-----------------|-----------------|-----------------|
D-|-----------------|-----------------|-1-1-1-1-1-1-1-1-|-3-3-3-3-3-3-3-1-|
A-|-3-3-3-3-3-3-3-3-|-1-1-1-1-1-1-1-1-|-----------------|-----------------|
E-|-----------------|-----------------|-----------------|-----------------|

1st Chorus Riff:

Play four times.

G-|-----------------|-----------------|-----------------|-----------------|
D-|-----------------|-----------------|-1-1-1-1-1-1-1-1-|-3-3-3-3-3-3-3-1-|
A-|-3-3-3-3-3-3-3-3-|-1-1-1-1-1-1-1-1-|-----------------|-----------------|
E-|-----------------|-----------------|-----------------|-----------------|

Then play this four times.

G-|-----------------|-----------------|-----------------|-----------------|
D-|-----------------|-----------------|-5-5-5-5-5-5-5-5-|-7-7-7-7-7-7-7-5-|
A-|-7-7-7-7-7-7-7-7-|-5-5-5-5-5-5-5-5-|-----------------|-----------------|
E-|-----------------|-----------------|-----------------|-----------------|

Verse Riff:

G-|-----------------|-----------------|-----------------|-----------------|
D-|-----------------|-----------------|-----------------|-----------------|
A-|-5-------------3-|-5-------------3-|-5-------------3-|-5-------------3-|
E-|-----------------|-----------------|-----------------|-----------------|

G-|-----------------|-----------------|-----------------|-----------------|
D-|-----------------|-----------------|-----------------|-----------------|
A-|-5-5-3-3-----3-3-|-5-5-3-3-----3-3-|-5-5-3-3-----3-3-|-5-5-3-3-----3-3-|
E-|---------5-5-----|---------5-5-----|---------5-5-----|---------5-5-----|

2nd Chorus Riff:

Play twice.

G-|-----------------|-----------------|-----------------|-----------------|
D-|-----------------|-----------------|-1-1-1-1-1-1-1-1-|-3-3-3-3-3-3-3-1-|
A-|-3-3-3-3-3-3-3-3-|-1-1-1-1-1-1-1-1-|-----------------|-----------------|
E-|-----------------|-----------------|-----------------|-----------------|

- Verse Riff

- 2nd Chorus Riff

- Verse Riff

- 2nd Chorus Riff

- Verse Riff

- 2nd Chorus Riff

2nd Verse Riff / Outro:

G-|-----------------|-----------------|-----------------|-----------------|
D-|-----------------|-----------------|-----------------|-----------------|
A-|-9-------------7-|-9-------------7-|-9-------------7-|-9-------------7-|
E-|-----------------|-----------------|-----------------|-----------------|

G-|-----------------|-----------------|-----------------|-----------------|
D-|-----------------|-----------------|-----------------|-----------------|
A-|-9-9-7-7-----7-7-|-9-9-7-7-----7-7-|-9-9-7-7-----7-7-|-9-9-7-7-----7-7-|
E-|---------9-9-----|---------9-9-----|---------9-9-----|---------9-9-----|

G-|-----------------|-----------------|-----------------|-----------------|
D-|-----------------|-----------------|-----------------|*---------------*|
A-|-7-9-----7-9-----|-7-9-----7-9-----|-7-9-----7-9-----|*-7-9----7-9----*|
E-|-----------------|-----------------|-----------------|-----------------|

- Verse Riff

- 2nd Chorus Riff

- Verse Riff

- 2nd Chorus Riff

- Outro

=============================================================================
Добавлено: 06.03.2012
Другие материалы по этой песне:
  • Аккорды и текст

Страница создана 06.03.2012
http://primanota.ru/crass/where-next-columbus-chords.htm
Привет, Гость.
Предлагаем пройти революционный курс по гитаре.
Подарок от PrimaNota.Ru, забирай!