PrimaNota.ru - самый крупный в мире бесплатный архив песенных текстов, аккордов, табулатур и нот


Crass - Walls - бас-таба, видео

Регистрация Запомнить меня
Войти через:  Facebook Google Twitter Vk Yandex Mail.ru

Crass - Walls - бас-таба, видео

Печатать
Просмотров: 138
Gtr I (E A D G) - Crass - Walls


Intro
  E E E E E E E E
|-----------------|
|-----------------|
|-----------------|   X How ever many.
|-6-6-6-6-6-6-6-6-|


Chorus
  E E E  E E  E E E   E  E E E E  E E  E   E E E E E E E E   E E E E E E E E
|-----------------8-|---10---8-----------|-----------------|-------------------|
|---8---10---11-----|------------11---10-|-----------------|-------------------|
|---------------6---|-8----6-------------|-----------------|-------------------|
|-6---8----9--------|----------9----8----|-6-6-6-6-6-6-6-6-|-6-6-6-6-6-6-6-6---|
Добавлено: 28.07.2012
Другие материалы по этой песне:
  • Аккорды и текст

Страница создана 28.07.2012
http://primanota.ru/crass/walls-chords.htm
Привет, Гость.
Предлагаем пройти революционный курс по гитаре.
Подарок от PrimaNota.Ru, забирай!