PrimaNota.ru - самый крупный в мире бесплатный архив песенных текстов, аккордов, табулатур и нот


Crass - Mickey Mouse Is Dead - бас-таба, видео

Регистрация Запомнить меня
Войти через:  Facebook Google Twitter Vk Yandex Mail.ru

Crass - Mickey Mouse Is Dead - бас-таба, видео

Печатать
Просмотров: 144
Уроки эстрадного вокала в Санкт-Петербурге
Gtr I (E A D G) - 'Crass - Mickey Mouse is Dead'

  Q=145
 4/4
  Gtr I
  H.      Q    q  q  q  q    q  q  q  q    q  q  q  q    q  q  q  q
|------------|-------------|-------------|-------------|---------------|
|------------|-------------|-------------|-------------|---------------|
|---------6S=|=2--2--2--2--|-2--2--2--2--|-2--2--2--2--|-2--2--2--2----|
|------------|-------------|-------------|-------------|---------------|


  q  q  q  q    q  q  q  q    q  q  q  q    q  q  q  E E
|-------------|-------------|-------------|--------------|
|-------------|-------------|-------------|--------------|
|-2--2--2--2--|-2--2--2--2--|-2--2--2--2--|-2--2--2--2-0-|
|-------------|-------------|-------------|--------------|


  q  q  q  E E   q  q  q  E E   q  q  q  E E   q  q  q  E E
|--------------|--------------|--------------|--------------|
|--------------|--------------|--------------|--------------|
|-2--2--2--2-0-|-2--2--2--2-0-|-2--2--2--2-0-|-2--2--2--2-0-|
|--------------|--------------|--------------|--------------|


  q  q  q  E E   q  q  q  E E   q  q  q  E E   W
|--------------|--------------|--------------|------|
|--------------|--------------|--------------|------|
|-2--2--2--2-0-|-2--2--2--2-0-|-2--2--2--2-0-|-2----|
|--------------|--------------|--------------|------|


  Wx3          E E E E E E E E   E E E E E E E E   E E E E E E E E
|------------|-----------------|-----------------|-----------------|
|------------|-----------------|-----------------|-----------------|
|------------|-2-2-2-2-0-0-4-0-|-2-2-2-2-0-0-4-0-|-2-2-2-2-0-0-4-0-|
|------------|-----------------|-----------------|-----------------|


  E E E E E E E E   E E E E E E E E   E E E E E E E E    h    Q.
|-----------------|-----------------|------------------|------------|
|-----------------|-----------------|------------------|------------|
|-5-5-5-5-6-6-6-6-|-5-5-5-5-6-6-6-6-|-5-5-5-5-6-6-6-6--|-5S==18\----|
|-----------------|-----------------|------------------|------------|


Break.  Play the rythem with B notes.



Repeat parts as neccersary.



Duration Legend
---------------
W - whole; H - half; Q - quarter; E - 8th; S - 16th; T - 32nd; X - 64th; a - acciaccatura
+ - note tied to previous; . - note dotted; .. - note double dotted
Uncapitalized letters represent notes that are staccato (1/2 duration)
Irregular groupings are notated above the duration line
Duration letters will always appear directly above the note/fret number it represents the
duration for.  Duration letters with no fret number below them represent rests.  Multi-
bar rests are notated in the form Wxn, where n is the number of bars to rest for.  Low
melody durations appear below the staff

Tablature Legend
----------------
 h   - hammer-on
 p   - pull-off
 b   - bend
 pb  - pre-bend
 r   - bend release (if no number after the r, then release immediately)
 /\  - slide into or out of (from/to "nowhere")
 s   - legato slide
 S   - shift slide
  - natural harmonic
[n]  - artificial harmonic
n(n) - tapped harmonic
 ~   - vibrato
 tr  - trill
 T   - tap
 TP  - trem. picking
 PM  - palm muting
\n/  - tremolo bar dip; n = amount to dip
 \n  - tremolo bar down
 n/  - tremolo bar up
/n\  - tremolo bar inverted dip
 =   - hold bend; also acts as connecting device for hammers/pulls
 <>  - volume swell (louder/softer)
 x   - on rhythm slash represents muted slash
 o   - on rhythm slash represents single note slash

Misc Legend
-----------
 |  - bar
||  - double bar
||o - repeat start
o|| - repeat end
*|  - double bar (ending)
 :  - bar (freetime)
 $  - Segno
 &  - Coda
Tempo markers -  = BPM(8/16=s8/s16), where s8 = swing 8ths, s16 = swing 16ths


Добавлено: 18.05.2012
Другие материалы по этой песне:
  • Аккорды и текст

Страница создана 18.05.2012
http://primanota.ru/crass/mickey-mouse-is-dead-chords.htm
Привет, Гость.
Предлагаем пройти революционный курс по гитаре.
Подарок от PrimaNota.Ru, забирай!