PrimaNota.ru - самый крупный в мире бесплатный архив песенных текстов, аккордов, табулатур и нот


Crass - End Result - текст песни, бас-таба, видео

Регистрация Запомнить меня
Войти через:  Facebook Google Twitter Vk Yandex Mail.ru

Crass - End Result - текст песни, бас-таба, видео

Печатать
Просмотров: 180
END RESULT by Crass. Album : The Feeding Of The 5000 (1978)
I am a product.
:
# intro # X4  *=playX4
G-----------------------|
D-----------------------|
A-------*-------*-------|
E-------5-------3-------|
:
# verse # X2  *=playX4
G--------------------------------------------*----*----|
D----------------------------------*----*----7----7----|
A----*----*----*----*----*----*----5----7--------------|
E----5----3----5----3----5----8------------------------|
:
# chorus #
G-----------X4-------------|-----------X3-----------|
D----------------------7---|---7-7--5---------------|
A--------------5-5--7------|-----------7---5--------|
E----5-5--8-8--------------|------------------8-5---|
:
# bridge #  *=playX4
G--------------*---*----*----*----|
D----*----*----7---7----5----5----|
A----5----7-----------------------|
E---------------------------------|
:
Then play verseX2, chorus, bridge, verseX2, chorus, bridge,
 verseX2, chorus, bridge, introX4 (!fade out on last note!)
:
I am a symbol of endless, hopeless, fruitless, aimless games.
jackhynes :AT: gmail :DOT: com 04.06.04
http://www.geocities.com/jackstabs
Добавлено: 31.05.2012
Другие материалы по этой песне:
  • Аккорды и текст

Страница создана 31.05.2012
http://primanota.ru/crass/end-result-chords.htm
Привет, Гость.
Предлагаем пройти революционный курс по гитаре.
Подарок от PrimaNota.Ru, забирай!