PrimaNota.ru - самый крупный в мире бесплатный архив песенных текстов, аккордов, табулатур и нот


Crass - Darling - текст песни, бас-таба, видео

Регистрация Запомнить меня
Войти через:  Facebook Google Twitter Vk Yandex Mail.ru

Crass - Darling - текст песни, бас-таба, видео

Печатать
Просмотров: 153
Уроки эстрадного вокала в Санкт-Петербурге
Авторы музыки: Crass

 Crass - Darling


 Main riff
|----------------|
|-----------1----|
|--------1-------|
|-1-0-1----------|


Chorus 1  (Hello, Hello, hello...)
|-------------6--5----------|
|-3--5--6--5--------6--5----|
|---------------------------|
|---------------------------|


Chorus 2 (Obscene sentimental, hero hello.)
|--------------------|
|--------------------|
|--------------------|
|-1-0-1-0/6-5-6-5----|


Other part (Protection, Protection...)
|--------------------|
|--------------------|
|--------------------|
|-1-1-1-1-1-1-1-1----|
Добавлено: 08.07.2012
Другие материалы по этой песне:
  • Аккорды и текст

Страница создана 04.05.2012
http://primanota.ru/crass/darling-chords.htm
Привет, Гость.
Предлагаем пройти революционный курс по гитаре.
Подарок от PrimaNota.Ru, забирай!